PrimaNota.ru - самый крупный в мире бесплатный архив песенных текстов, аккордов, табулатур и нот


Dementia Cookie Box - Confused - аккорды и текст, таба, видео

Регистрация Запомнить меня
Войти через:  Facebook Google Twitter Vk Yandex Mail.ru

Dementia Cookie Box - Confused - аккорды и текст, таба, видео

Печатать
Просмотров: 113
Confused
Dementia Cookie Box



#This file is the author's own work and represents their interpretation of the #
#song. You may only use this file for private study, scholarship, or research. #
#------------------------------------------------------------------------------#

Artist:	Dementia Cookie Box
Song:	Confused

Music amp; Words by Steven Baker

Lyrics:

Verse:
Tell me which way ....

Verse2:
What's on your ....

Verse:
I don't know what t....
(solo)

Verse:
I don't know what to ....

Verse:
Tell me which way ....

Guitar Chording:
Verse: Em, G, A, G, Em
Verse2: E5, G5, A5, G5, E5, G5, A5, G5, E5, G5, A5, G5, B5, D5
Solo: Em, G, A, G, Em, G, A, G, Em, G, A, G, D

Lead Guitar:

Verse:

E---------------------------------------------------------
A---------------------------------------------------------
D---------------------------------------------------------
G---------------------------------------------------------
B---------2-2-------------2-2-------------2-2-------------
E-0-0-3-3-----3-3-0-0-3-3-----3-3-0-0-3-3-----3-3-2-2-3^2-

Verse2:

E-------------------------------------------------
A-------------------------------------------------
D-------------------------------------------------
G-------------------------------------------------
B---------2-2-------------2-2-------------2-2-----
E-0-0-3-3-----3-3-0-0-3-3-----3-3-0-0-3-3-----3-3-

Solo:

E-----------------------------------------------------------------
A-----------------------------------------------------------------
D-----------------------------------------------------------------
G-----------------------------------------------------------------
B---------2-2-----------------2-2-----------------2-2---------2---
E-0-0-3-3-----3^5^3-0-0-0-3-3-----3^5^3-0-0-0-3-3-----3^5^3-0---3-

© 1996 Dementia Cookie Box


Добавлено: 31.10.2013
Другие материалы по этой песне:
  • Аккорды и текст

Страница создана 25.05.2012
http://primanota.ru/dementia-cookie-box/confused-chords.htm
Привет, Гость.
Предлагаем пройти революционный курс по гитаре.
Подарок от PrimaNota.Ru, забирай!