PrimaNota.ru - самый крупный в мире бесплатный архив песенных текстов, аккордов, табулатур и нот


Demented Are Go - Shadow Crypt - бас-таба, видео

Регистрация Запомнить меня
Войти через:  Facebook Google Twitter Vk Yandex Mail.ru

Demented Are Go - Shadow Crypt - бас-таба, видео

Печатать
Просмотров: 208
Уроки эстрадного вокала в Санкт-Петербурге
Авторы: Mark Phillips, Graeme Grant

intro:
G|-------------------------------------------------------|
D|-2-3-2-0-----------------------------------------------|
A|---------2-3-0~~---0---0---0---------------------------|
E|----------------0~~--0---0---0-------------------------|

---
"here i am, all alone"
G|--------------------------------------------------|
D|-----2-------3-2-----2-------3-2-----2-------3-2--|
A|-0-3---3-0-3-----0-3---3-0-3-----0-3---3-0-3------|
E|------------------------------------------------- |
"in this crypt I lay"
G|-----------------------------2--------------------------|
D|---------0-----------2---0-3---3-2-0--------------------|
A|-----2-3---3-2---0-3---3-------------3-2-0---0-0--------|
E|-0-3-----------3---------------------------0------------|

--
"whos that lurking in the shadows"
G|---------------------------------------------2--------------------|
D|-------------------------------------2---0-3---3-2-0--------------|
A|-0---0---0---0-------------------0-3---3-------------3-2-0---0-0--|
E|---2---2---2---2-0-2-0-2-0-0-2-4---------------------------0------|

solo:
G|-2---2---2---2--------------------|
D|---2---2---2---2-3---3---3---3----|
A|-------------------3---3---3---3--|
E|----------------------------------|

G|-2---2---2---2-----------------------------------------------|
D|---2---2---2---2-3---3---3---3---2-3-2-0---------------------|
A|-------------------3---3---3---3---------2-3-0-0-------------|
E|-------------------------------------------------------------|


"Listen to these words I say, then it's up to you"
G|-----------------------------------------|
D|-2~~------------------0~~~---------------|
A|-----0------------0~~------0---0---0-0---|
E|-------0~~--0-2-4------------0---0-------| 
Добавлено: 07.03.2012
Другие материалы по этой песне:
  • Аккорды и текст

Страница создана 07.03.2012
http://primanota.ru/demented-are-go/shadow-crypt-chords.htm
Привет, Гость.
Предлагаем пройти революционный курс по гитаре.
Подарок от PrimaNota.Ru, забирай!