PrimaNota.ru - самый крупный в мире бесплатный архив песенных текстов, аккордов, табулатур и нот


Demented Are Go - I Wanna Kill - таба, видео

Регистрация Запомнить меня
Войти через:  Facebook Google Twitter Vk Yandex Mail.ru

Demented Are Go - I Wanna Kill - таба, видео

Печатать
Просмотров: 97
1st part:
e-------------------------------------|
h-------------------------------------|
g-------------------------------------|
D--2----------------2-2-2--1----------|
A--2----0-1-0-------2-2-2--1----------|
E--0--3-------3-1---0-0-0--3----------|

play 2x

2nd part:
e-------------------------------------|
h-------------------------------------|
g--2----------------2-2-2--1----------|
D--0----0-1-0-------2-2-2--1----------|
A--0--3-------3-1---0-0-0--3----------|
E-------------------------------------|

play 2x 1st part


Bridge I:
e------------------------------------------------------|
h------------------------------------------------------|
g--3-3-3-3-3-3--2-2-2-2-2-2--8-8-8-8-8-8---------------|
D--3-3-3-3-3-3--2-2-2-2-2-2--8-8-8-8-8-8--7-7-7-7-7-7--|
A--1-1-1-1-1-1--0-0-0-0-0-0--6-6-6-6-6-6--7-7-7-7-7-7--|
E-----------------------------------------5-5-5-5-5-5--|

e-------------------------------------------|
h-------------------------------------------|
g--3-3-3-3-3-3--2-2-2-2-2-2-----------------|
D--3-3-3-3-3-3--2-2-2-2-2-2--5-5-5-5-5-5----|
A--1-1-1-1-1-1--0-0-0-0-0-0--5-5-5-5-5-5----|
E----------------------------3-3-3-3-3-3----|

4x 1st part

2x 2nd part

2x 1st part

Bridge I

play 2x 1st part

play 4x 1st part ---

play 2x 2nd part ------ over solo
/
play 2x 1st part ---

Bridge I

Bridge II:
e------------------------------------|
h------------------------------------|
g---------3-3-3---------3-3-3-3-3-3--|
D--2------3-3-3---2-----3-3-3-3-3-3--|
A--2------1-1-1---2-----1-1-1-1-1-1--|
E--0-x12----------0-x6---------------|

8x 1st part

2x 2nd part

2x 1st part

Bridge I

Bridge II

play 4x 1st part ---

play 2x 2nd part ------ over solo
/
play 2x 1st part ---

Bridge I

6x 1st part

2x 2nd part

2x 1st part

Bridge I

End part:
e-------------------------------------------------------------------|
h-------------------------------------------------------------------|
g---------3-3-3---------3-3-3--------3-3-3----------3-3-3-3-3-3-----|
D--2------3-3-3---2-----3-3-3--2-----3-3-3---2------3-3-3-3-3-3--2--|
A--2------1-1-1---2-----1-1-1--2-----1-1-1---2------1-1-1-1-1-1--2--|
E--0-x12----------0-x12--------0--x12--------0--x6---------------0--|
Добавлено: 24.02.2012
Другие материалы по этой песне:
  • Аккорды и текст

Страница создана 24.02.2012
http://primanota.ru/demented-are-go/i-wanna-kill-chords.htm
Привет, Гость.
Предлагаем пройти революционный курс по гитаре.
Подарок от PrimaNota.Ru, забирай!