PrimaNota.ru - самый крупный в мире бесплатный архив песенных текстов, аккордов, табулатур и нот


Demented Are Go - Funnel Of Love - таба, видео

Регистрация Запомнить меня
Войти через:  Facebook Google Twitter Vk Yandex Mail.ru

Demented Are Go - Funnel Of Love - таба, видео

Печатать
Просмотров: 146
intro
|---------------------6----------------------------------------------|
|---8-8--6--8--8-6-8----8---3--6--3--------------6-------------------|
|--------------------------------------7--7--5-7----7-5--3-----------|
|----------------------------------------------------------5-5-3-5---|
|--------------------------------------------------------------------|
|--------------------------------------------------------------------|

|-------3-3-3-----------------------|
|-------3-3-3-----------------------|
|-------3-3-3----- repeat 4 times---|
|--s/5--5---------------------------|
|--s/5------------------------------|
|--s/3------------------------------|


verse listen for rhythm
|-------------------------|--------3-3-3--------------------|
|-------------------------|--------3-3-3--------------------|
|-----3------5---3-----7--|--------3-3-3---- repeat twice --|
|-5---3--5---5---3--5--7--|--s/5---5------------------------|
|-5---1--5---3---1--5--5--|--s/5----------------------------|
|-3------3----------3-----|--s/3----------------------------|

chorus
|-------------------------------------------|
|-------------------------------------------|
|--4---3---4---3------3---7s---------------|
|--5---3---5---3---5--3---7s---------------|
|--5---1---5---1---5--1---5s---------------|
|--3-------3-------3------------------------|

first solo
|--s/7-7-7-7--7-5-5-5--7-7-7-7--7--10-10-10-10--7-7-7-7--5--------------------|
|--s/8-8-8-8--8-6-6-6--8-8-8-8--8--11-11-11-11--8-8-8-8--6--3-----------------|
|-----------------------------------------------------------------3----3------|
|--------------------------------------------------------------5----5----5----|
|-----------------------------------------------------------------------------|
|-----------------------------------------------------------------------------|

|-----3-3-3--3-3-3-3-------3-3-3-----3-3-3--------3-3-3--3-3-3-3--3-3----------------|
|-----3-3-3--3-3-3-3-------3-3-3-----3-3-3--------3-3-3--3-3-3-3--3-3----------------|
|--5^--------------------5^ -------5^------------5^--------------------5-3-------3---|
|--------------------------------------------------------------------------5-3-5---5-|
|------------------------------------------------------------------------------------|
|------------------------------------------------------------------------------------|

|---------------------------3--------------------------------------------------------|
|--3-3-3-----------3-3-3----3--3---3------5--5-3-------------------------------------|
|--3-3-3-----------3-3-3--5^---3---3---3--5^-5-3---3-3-------------------------------|
|--------5-3-5-------------------5---5-----------5-----5-3-5-------------------------|
|------------------------------------------------------------------------------------|
|------------------------------------------------------------------------------------|

second solo
|-------------------------------------------------------------------------------------------|
|15-15-15-15-15-15-15-15---15-15-15-15-15-15-15------------17--17--------------15-15-15-----|
|15-15-15-15-15-15-15-15---15-15-15-15-15-15-15--15-17-15--17^-17^-17-15-------15-15-15-----|
|------------------------------------------------------------------------17-15----------17--|
|-------------------------------------------------------------------------------------------|
|-------------------------------------------------------------------------------------------|

|----------------------------------------------------------------------------------------------|
|-----------15-18-20--18-15-------------------------17-----15-----17-----15-----17---15-----17-|
|15-17-17^------------------17-18-17-15----------15-17^-17-15-17--17^-17-15--17-17^--15-17--17^|
|----------------------------------------17---17-----------------------------------------------|
|----------------------------------------------------------------------------------------------|
|----------------------------------------------------------------------------------------------|

|--------------15----15----------------------------------------------------------------|
|--------15-18----18----18--15---------------------------------------------------------|
|-15-17---------------------------17-18-17-15------------------------------------------|
|----------------------------------------------17--15-17-------------------------------|
|--------------------------------------------------------------------------------------|
|--------------------------------------------------------------------------------------|

|---------------------------3----------------------------------------------------------|
|--3-3-3-----------3-3-3----3--3---3------5--5-3---------------------------------------|
|--3-3-3-----------3-3-3--5^---3---3---3--5^-5-3---3-3---------------------------------|
|--------5-3-5-------------------5---5-----------5-----5-3-5---------------------------|
|--------------------------------------------------------------------------------------|
|--------------------------------------------------------------------------------------|

end riff
|--------------------------------------------------------------------------------------|
|--------------------------------------------------------------------------------------|
|---3-------------3--------------------------------------------------------------------|
|-5---5-3-5---3-5---5-3-5-3---3---- repeat 4 times ------------------------------------|
|---------------------------5----------------------------------------------------------|
|--------------------------------------------------------------------------------------|
Добавлено: 29.03.2012
Другие материалы по этой песне:
  • Аккорды и текст

Страница создана 29.03.2012
http://primanota.ru/demented-are-go/funnel-of-love-chords.htm
Привет, Гость.
Предлагаем пройти революционный курс по гитаре.
Подарок от PrimaNota.Ru, забирай!