PrimaNota.ru - самый крупный в мире бесплатный архив песенных текстов, аккордов, табулатур и нот


Dem - Wehikuł Czasu - таба, видео

Регистрация Запомнить меня
Войти через:  Facebook Google Twitter Vk Yandex Mail.ru

Dem - Wehikuł Czasu - таба, видео

Печатать
Просмотров: 43
Dżem - Wehikuł Czasu
Tabbed by: Zagrywka (Tomek Pietrzkowski)
url: http://www.chords.pl/chwyty/dzem/17741,wehikul_czasu_zagrywka

Akordy:

     A  E  f#  D

e1|--0--0--2---2--
B2|--2--0--2---3--
G3|--2--1--2---2--
D4|--2--2--4---0--
A5|--0--2--4---x--
E6|--x--0--2---x--


Intro / Wstęp:

     A            E         A  f#     D               A            E             D       A
e1|----------------------------------------------------------------------------------------|
B2|-----------2-----------------------3~--3--------------------2-----------------3---3---2-|
G3|--2--2-----2-----------------------2~--2h4p2-------2--2-----2-----------------2h4-2---2-|
D4|--2--2-----2---2--2------2----2-4--0--------4p2----2--2-----2---2--2------2---0-----4-2-|
A5|--0--0h3/4-----2--2------2--4------------------3/4-0--0h3/4-----2--2------2-----------0-|
E6|---------------0--0--3/4----2-----------------------------------0--0--3/4---------------|

Basic ver. / wersja uproszczona:

e1|------------------------------------------------------------------------------------------|
B2|------------------------------------------------------------------------------------------|
G3|-----------2-----------------------2----4-2------------------2-----------------2-h4-2---2-|
D4|--2--------2-------------2----2-4--0--------4-2-----2--------2-------------2---0------4-2-|
A5|--0--0-3/4-----2---------2----------------------3-4-0--0-3/4-----2---------2------------0-|
E6|---------------0--0--3/4----2------------------------------------0--0--3/4----------------|

solo:

e|---------------------------------------------------10-12b14-12b14-12-----------------------------------------|
B|---------10--12b14-14r12--10--12~ ------10-12-10-12-------------------14r12-10-12-------10-13r12-10-12----10-|
G|-9--9h11--------------------------9-11---------------------------------------------9-11----------------11----|
D|-------------------------------------------------------------------------------------------------------------|
A|-------------------------------------------------------------------------------------------------------------|
E|-------------------------------------------------------------------------------------------------------------|


************************************

| /   slide up
| \   slide down
| h   hammer-on
| p   pull-off
| ~   vibrato
| b - bend
| r - release
| x   Mute note
Добавлено: 09.04.2016
Вам также может быть интересно:
Другие материалы по этой песне:
  • Аккорды и текст

Страница создана 09.04.2016
http://primanota.ru/dem/wehiku-czasu-chords.htm
Привет, Гость.
Предлагаем пройти революционный курс по гитаре.
Подарок от PrimaNota.Ru, забирай!