PrimaNota.ru - самый крупный в мире бесплатный архив песенных текстов, аккордов, табулатур и нот


Delux - Away - таба, видео

Регистрация Запомнить меня
Войти через:  Facebook Google Twitter Vk Yandex Mail.ru

Delux - Away - таба, видео

Печатать
Просмотров: 144
Esta rola es de delux esta buenisima aquí tengo el tabulado para segunda guitarra solo 
el ritmo
Intro:
e---------|
B----5----|
G---------|
D---------|6x(nota:encuentrale el ritmo)
A---------|
E---------|

e---------------------------|
B---------------------------|
G------1111-1111-99-99-55-55|
D------9-9—-9-9—-77-77-77-77|2x(los tiempos y veces que se hacen)
A-77-77---------------------|
E-55-55---------------------|

Verso:
e---------------------------|
B---------------------------|
G------1111-1111-99-99-55-55|
D------9-9—-9-9—-77-77-77-77|2x(Todo va con palmute)
A-77-77---------------------|
E-55-55---------------------|

Pre-coro:
e---------|
B---------|
G---11-9-7|¿?x(aquí encuentra el ritmo y las veces que va cada uno
D---9—-7-5|
A-7-------|
E-5-------|

Coro:
e---------------------------|
B---------------------------|
G------1111-1111-99-99-55-55|
D------9-9—-9-9—-77-77-77-77|2x(Partes va con palm mute y partes no)
A-77-77---------------------|
E-55-55---------------------|

Post-coro:
e---------------------------|
B---------------------------|
G------1111-1111-99-99-55-55|
D------9-9—-9-9—-77-77-77-77|2x(los tiempos y veces que se hacen)
A-77-77---------------------|
E-55-55---------------------|

Preverso(Tal vez podriamos ser la excepcion va algo rapido, nota el slide que se escucha 
la 1º guitarra):
e---------|
B----9----|
G---------|
D---------|
A---------|
E---------|

Pre-coro:
e---------|
B---------|
G---11-9-7|¿?x(aquí encuentra el ritmo y las veces que va cada uno)
D---9—-7-5|
A-7-------|
E-5-------|

Coro:
e---------------------------|
B---------------------------|
G------1111-1111-99-99-55-55|
D------9-9—-9-9—-77-77-77-77|2x(Partes va con palm mute y partes no)
A-77-77---------------------|
E-55-55---------------------|

Intermedio bajo y traka

Intermedio 2:
e---------------------------|
B---------------------------|
G------1111-1111-99-99-55-55|
D------9-9—-9-9—-77-77-77-77|2x(encuentrale el ritmo)
A-77-77---------------------|
E-55-55---------------------|

Coro:
e---------------------------|
B---------------------------|
G------1111-1111-99-99-55-55|
D------9-9—-9-9—-77-77-77-77|2x(chek cada que va el palm mute)
A-77-77---------------------|
E-55-55---------------------|

Y pues es todo para segunda guitarra despues consigo lo de la primera neta va asi solo 
el ritmo.

Este tab va por la chik que quero muxo, y pa mi compa el silin gracias we por todo eres 
pok y el me hecho la mano con esta rola.
Добавлено: 02.03.2012
Другие материалы по этой песне:
  • Аккорды и текст

Страница создана 02.03.2012
http://primanota.ru/delux/away-chords.htm
Привет, Гость.
Предлагаем пройти революционный курс по гитаре.
Подарок от PrimaNota.Ru, забирай!