PrimaNota.ru - самый крупный в мире бесплатный архив песенных текстов, аккордов, табулатур и нот


Deluhi - Frontier - текст песни, таба, видео

Регистрация Запомнить меня
Войти через:  Facebook Google Twitter Vk Yandex Mail.ru

Deluhi - Frontier - текст песни, таба, видео

Печатать
Просмотров: 143
Уроки эстрадного вокала в Санкт-Петербурге
                                   Frontier                                     


                                                                          DELUHI
Guitar III



                     PM PM PM PM PM PM    PM PM PM PM PM  
                     S  S  E  S  S  E  E  E  S  S  S  S   
D||-------|-------|--------------------------------------|
A||-------|-------|--------------------------------------|
F||-------|-------|--------------------------------------|
C||-------|-------|--------------------------------------|
G||-------|-------|--0--0--0--0--0--0-----0--0--0--0--0--|
C||-------|-------|--0--0--0--0--0--0-----0--0--0--0--0--|


  PM PM PM PM                PM PM PM PM PM PM    PM PM PM PM PM  
  E  S  S  E  E  H           S  S  E  S  S  E  E  E  S  S  S  S   
--------------------------|--------------------------------------|
--------------------------|--------------------------------------|
--------------------------|--------------------------------------|
--------------------------|--------------------------------------|
--0--0--0--0--------------|--0--0--0--0--0--0-----0--0--0--0--0--|
--0--0--0--0--------------|--0--0--0--0--0--0-----0--0--0--0--0--|


  PM PM PM PM                PM PM PM PM PM PM    PM PM PM PM PM  
  E  S  S  E  E  H           S  S  E  S  S  E  E  E  S  S  S  S   
--------------------------|--------------------------------------|
--------------------------|--------------------------------------|
--------------------------|--------------------------------------|
--------------------------|--------------------------------------|
--0--0--0--0--------------|--0--0--0--0--0--0-----0--0--0--0--0--|
--0--0--0--0--------------|--0--0--0--0--0--0-----0--0--0--0--0--|


  PM PM PM PM                PM PM PM PM PM PM    PM PM PM PM PM  
  E  S  S  E  E  H           S  S  E  S  S  E  E  E  S  S  S  S   
--------------------------|--------------------------------------|
--------------------------|--------------------------------------|
--------------------------|--------------------------------------|
--------------------------|--------------------------------------|
--0--0--0--0--------------|--0--0--0--0--0--0-----0--0--0--0--0--|
--0--0--0--0--------------|--0--0--0--0--0--0-----0--0--0--0--0--|


                                  PM        PM      
  H        Q.     E     E  E   E  E  E   E  E  E    
---------------------|-----------------------------|
---------------------|-----------------------------|
---------------------|-----7s--5-----5s--7-----7s--|
--1--------3------5--|--L--------------------------|
--1--------3------5--|--L--5s--3--3--3s--5--5--5s--|
--1--------3------5--|--L--------------------------|


        PM      PM    PM                PM PM            PM    PM    PM PM     
   Q    E   E   E  E  E  E     H        E  E  Q       E  E  E  E  E  E  E  E   
----------------------------|----------------------|--------------------------|
----------------------------|----------------------|--------------------------|
--10-------12------7--------|----------------------|--------------------------|
-------------------------1--|--L--------------1----|--3-----3-----3--------5--|
---8----8--10--10--5--5--1--|--L--------1--1--1----|--3--3--3--3--3--3--7--5--|
-------------------------1--|--L--------1--1--1----|--3--3--3--3--3--3--7--5--|


            PM        PM              PM      PM    PM     
  E  E   E  E  E   E  E  E       Q    E   E   E  E  E  E   
-----------------------------|----------------------------|
-----------------------------|----------------------------|
-----7s--5-----5s--7-----7s--|--10-------12------7--------|
--L--------------------------|-------------------------1--|
--L--5s--3--3--3s--5--5--5s--|---8----8--10--10--5--5--1--|
--L--------------------------|-------------------------1--|


       PM PM PM PM              PM    PM    PM     
  Q    E  E  E  E  Q       Q    E  E  E  E  E  E   
------------------------|-------------------------|
------------------------|-------------------------|
------------------------|-------------------------|
--L----------------1----|--5-------3-----5-----5--|
--L----1--1--1--1--1----|--5----5--3--3--5--5--5--|
--L----1--1--1--1--1----|--5----5--3--3--5--5--5--|


            PM        PM              PM      PM    PM     
  E  E   E  E  E   E  E  E       Q    E   E   E  E  E  E   
-----------------------------|----------------------------|
-----------------------------|----------------------------|
-----7s--5-----5s--7-----7s--|--10-------12------7--------|
--L--------------------------|-------------------------1--|
--L--5s--3--3--3s--5--5--5s--|---8----8--10--10--5--5--1--|
--L--------------------------|-------------------------1--|


           PM PM            PM    PM    PM PM                 PM        PM      
  H        E  E  Q       E  E  E  E  E  E  E  E     E  E   E  E  E   E  E  E    
----------------------|--------------------------|-----------------------------|
----------------------|--------------------------|-----------------------------|
----------------------|--------------------------|-----7s--5-----5s--7-----7s--|
--L--------------1----|--3-----3-----3--------5--|--L--------------------------|
--L--------1--1--1----|--3--3--3--3--3--3--7--5--|--L--5s--3--3--3s--5--5--5s--|
--L--------1--1--1----|--3--3--3--3--3--3--7--5--|--L--------------------------|


        PM      PM    PM            PM PM PM PM       
   Q    E   E   E  E  E  E     Q    E  E  E  E  Q     
----------------------------|------------------------|
----------------------------|------------------------|
--10-------12------7--------|------------------------|
-------------------------1--|--L----------------1----|
---8----8--10--10--5--5--1--|--L----1--1--1--1--1----|
-------------------------1--|--L----1--1--1--1--1----|


       PM    PM   PH          PM PM PM PM PM PM    PM PM PM PM PM  
  Q    E  E  E    E   Q       S  S  E  S  S  E  E  E  S  S  S  S   
---------------------------|--------------------------------------|
----------------<>8~--L----|--------------------------------------|
---------------------------|--------------------------------------|
--3-------3----------------|--------------------------------------|
--3----3--3--3-------------|--0--0--0--0--0--0-----0--0--0--0--0--|
--3----3--3--3-------------|--0--0--0--0--0--0-----0--0--0--0--0--|


  PM PM PM PM                PM PM PM PM PM PM    PM PM PM PM PM  
  E  S  S  E  E  H           S  S  E  S  S  E  E  E  S  S  S  S   
--------------------------|--------------------------------------|
--------------------------|--------------------------------------|
--------------------------|--------------------------------------|
--------------------------|--------------------------------------|
--0--0--0--0--------------|--0--0--0--0--0--0-----0--0--0--0--0--|
--0--0--0--0--------------|--0--0--0--0--0--0-----0--0--0--0--0--|


  PM PM PM PM                PM PM PM PM PM PM    PM PM PM PM PM  
  E  S  S  E  E  H           S  S  E  S  S  E  E  E  S  S  S  S   
--------------------------|--------------------------------------|
--------------------------|--------------------------------------|
--------------------------|--------------------------------------|
--------------------------|--------------------------------------|
--0--0--0--0--------------|--0--0--0--0--0--0-----0--0--0--0--0--|
--0--0--0--0--------------|--0--0--0--0--0--0-----0--0--0--0--0--|


  PM PM PM PM                PM PM PM PM PM PM    PM PM PM PM PM  
  E  S  S  E  E  H           S  S  E  S  S  E  E  E  S  S  S  S   
--------------------------|--------------------------------------|
--------------------------|--------------------------------------|
--------------------------|--------------------------------------|
--------------------------|--------------------------------------|
--0--0--0--0--------------|--0--0--0--0--0--0-----0--0--0--0--0--|
--0--0--0--0--------------|--0--0--0--0--0--0-----0--0--0--0--0--|


  PM                     PM PM PM PM PM PM    PM PM PM PM PM  
  E  E  Q    H           S  S  E  S  S  E  E  E  S  S  S  S   
----------------------|--------------------------------------|
----------------------|--------------------------------------|
----------------------|--------------------------------------|
----------------------|--------------------------------------|
--0-------------------|--0--0--0--0--0--0-----0--0--0--0--0--|
--0-------------------|--0--0--0--0--0--0-----0--0--0--0--0--|


  PM PM PM PM                PM PM PM PM PM PM    PM PM PM PM PM  
  E  S  S  E  E  H           S  S  E  S  S  E  E  E  S  S  S  S   
--------------------------|--------------------------------------|
--------------------------|--------------------------------------|
--------------------------|--------------------------------------|
--------------------------|--------------------------------------|
--0--0--0--0--------------|--0--0--0--0--0--0-----0--0--0--0--0--|
--0--0--0--0--------------|--0--0--0--0--0--0-----0--0--0--0--0--|


  PM PM PM PM                PM PM PM PM PM PM    PM PM PM PM PM  
  E  S  S  E  E  H           S  S  E  S  S  E  E  E  S  S  S  S   
--------------------------|--------------------------------------|
--------------------------|--------------------------------------|
--------------------------|--------------------------------------|
--------------------------|--------------------------------------|
--0--0--0--0--------------|--0--0--0--0--0--0-----0--0--0--0--0--|
--0--0--0--0--------------|--0--0--0--0--0--0-----0--0--0--0--0--|


  PM PM PM PM                PM PM PM PM PM PM    PM PM PM PM PM  
  E  S  S  E  E  H           S  S  E  S  S  E  E  E  S  S  S  S   
--------------------------|--------------------------------------|
--------------------------|--------------------------------------|
--------------------------|--------------------------------------|
--------------------------|--------------------------------------|
--0--0--0--0--------------|--0--0--0--0--0--0-----0--0--0--0--0--|
--0--0--0--0--------------|--0--0--0--0--0--0-----0--0--0--0--0--|


                                  PM        PM      
  H        Q.     E     E  E   E  E  E   E  E  E    
---------------------|-----------------------------|
---------------------|-----------------------------|
---------------------|-----7s--5-----5s--7-----7s--|
--1--------3------5--|--L--------------------------|
--1--------3------5--|--L--5s--3--3--3s--5--5--5s--|
--1--------3------5--|--L--------------------------|


        PM      PM      PM                 PM PM       
   Q    E   E   E   E   E  E     Q    Q    E  E  Q     
------------------------------|-----------------------|
------------------------------|-----------------------|
--10-------12------14---------|-----------------------|
---------------------------1--|--L----1----------1----|
---8----8--10--10--12--12--1--|--L----1----1--1--1----|
---------------------------1--|--L----1----1--1--1----|


     PM    PM    PM                    PM        PM      
  E  E  E  E  E  E  E  E     E  E   E  E  E   E  E  E    
--------------------------|-----------------------------|
--------------------------|-----------------------------|
--------------------------|-----7s--5-----5s--7-----7s--|
--3--------------------5--|--L--------------------------|
-----3--6--3--5--3--6--5--|--L--5s--3--3--3s--5--5--5s--|
-----------------------5--|--L--------------------------|


        PM      PM    PM          PM    PH     PM             
   Q    E   E   E  E  E  E     E  E     Q      E   E   E  E   
----------------------------|--------------------------------|
----------------------------|--------------------------------|
--10-------12------7-----8--|--L-----<>10br----7-------------|
----------------------------|---------------------10s--8--5--|
---8----8--10--10--5--5--6--|--L--8--------------------------|
----------------------------|--------------------------------|


       PM    PM    PM                 PM        PM      
  Q    E  E  E  E  E  E     E  E   E  E  E   E  E  E    
-------------------------|-----------------------------|
-------------------------|-----------------------------|
-------------------------|-----7s--5-----5s--7-----7s--|
--5-------3-----5-----5--|--L--------------------------|
--5----5--3--3--5--5--5--|--L--5s--3--3--3s--5--5--5s--|
--5----5--3--3--5--5--5--|--L--------------------------|


        PM      PM      PM                 PM PM       
   Q    E   E   E   E   E  E     Q    Q    E  E  Q     
------------------------------|-----------------------|
------------------------------|-----------------------|
--10-------12------14---------|-----------------------|
---------------------------1--|--L----1----------1----|
---8----8--10--10--12--12--1--|--L----1----1--1--1----|
---------------------------1--|--L----1----1--1--1----|


     PM    PM    PM                    PM        PM      
  E  E  E  E  E  E  E  E     E  E   E  E  E   E  E  E    
--------------------------|-----------------------------|
--------------------------|-----------------------------|
--------------------------|-----7s--5-----5s--7-----7s--|
--3--------------------5--|--L--------------------------|
-----3--6--3--5--3--6--5--|--L--5s--3--3--3s--5--5--5s--|
-----------------------5--|--L--------------------------|


        PM      PM    PM                 PM PM         PM PM      PM PM       
   Q    E   E   E  E  E  E     Q    Q    E  E  Q       E  E  Q    E  E  Q     
----------------------------|-----------------------|------------------------|
----------------------------|-----------------------|------------------------|
--10-------12------7-----8--|--L----8----------8----|--------8----------8----|
-------------------------8--|--L----8----------8----|--------8----------8----|
---8----8--10--10--5--5--6--|--L----6----6--6--6----|--6--6--6----6--6--6----|
----------------------------|-----------------------|------------------------|


        PM PM PM PM PM PM       PM    PM    PM                              
   Q    E  E  E  E  E  E     E  E  E  E  E  E  E  E     Q    Q    H         
--------------------------|--------------------------|---------------------|
--------------------------|--------------------------|---------------------|
--10----------------------|--------------------------|---------------------|
--10----------------------|--3-----1-----------1--1--|--L----1----1--------|
---8----8--8--8--8--8--8--|-----1-----1--5--1-----1--|--L----1----1--------|
--------------------------|-----------------------1--|--L----1----1--------|


     PM    PM    PM                                   PM    PM    PM        
  E  E  E  E  E  E  E  E     Q    Q    H           E  E  E  E  E  E  E  E   
--------------------------|---------------------|--------------------------|
--------------------------|---------------------|--------------------------|
--------------------------|---------------------|--------------------------|
--3-----1-----------1--3--|--L----3----3--------|--3-----1-----------1--5--|
-----1-----1--5--1-----3--|--L----3----3--------|-----1-----1--5--1-----5--|
-----------------------3--|--L----3----3--------|-----------------------5--|


                           PM    PM    PM                              
  Q    Q    H           E  E  E  E  E  E  E  E     Q    Q    H         
---------------------|--------------------------|---------------------|
---------------------|--------------------------|---------------------|
---------------------|--------------------------|---------------------|
--L----5----5--------|--3-----1-----------1--6--|--L----6----6--------|
--L----5----5--------|-----1-----1--5--1-----6--|--L----6----6--------|
--L----5----5--------|-----------------------6--|--L----6----6--------|


     PM    PM    PM                                   PM    PM    PM        
  E  E  E  E  E  E  E  E     Q    Q    H           E  E  E  E  E  E  E  E   
--------------------------|---------------------|--------------------------|
--------------------------|---------------------|--------------------------|
--------------------------|---------------------|--------------------------|
--3-----1-----------1--1--|--L----1----1--------|--3-----1-----------1--3--|
-----1-----1--5--1-----1--|--L----1----1--------|-----1-----1--5--1-----3--|
-----------------------1--|--L----1----1--------|-----------------------3--|


                           PM    PM    PM                              
  Q    Q    H           E  E  E  E  E  E  E  E     Q    Q    H         
---------------------|--------------------------|---------------------|
---------------------|--------------------------|---------------------|
---------------------|--------------------------|---------------------|
--L----3----3--------|--3-----1-----------1--5--|--L----5----5--------|
--L----3----3--------|-----1-----1--5--1-----5--|--L----5----5--------|
--L----3----3--------|-----------------------5--|--L----5----5--------|


                                               PM    PM    PM        
  H.           Q        W                   E  E  E  E  E  E  E  E   
---------------------|-------------------|--------------------------|
---------------------|-------------------|--------------------------|
---------------------|-------------------|--------------------------|
--L------------LS----|--8----------------|--3-----1-----------1--1--|
--L------------LS----|--8----------------|-----1-----1--5--1-----1--|
--L------------LS----|--8----------------|-----------------------1--|


                           PM    PM    PM                              
  Q    Q    H           E  E  E  E  E  E  E  E     Q    Q    H         
---------------------|--------------------------|---------------------|
---------------------|--------------------------|---------------------|
---------------------|--------------------------|---------------------|
--L----1----1--------|--3-----1-----------1--3--|--L----3----3--------|
--L----1----1--------|-----1-----1--5--1-----3--|--L----3----3--------|
--L----1----1--------|-----------------------3--|--L----3----3--------|


     PM    PM    PM                                   PM    PM    PM        
  E  E  E  E  E  E  E  E     Q    Q    H           E  E  E  E  E  E  E  E   
--------------------------|---------------------|--------------------------|
--------------------------|---------------------|--------------------------|
--------------------------|---------------------|--------------------------|
--3-----1-----------1--5--|--L----5----5--------|--3-----1-----------1--6--|
-----1-----1--5--1-----5--|--L----5----5--------|-----1-----1--5--1-----6--|
-----------------------5--|--L----5----5--------|-----------------------6--|


                           PM    PM    PM                              
  Q    Q    H           E  E  E  E  E  E  E  E     Q    Q    H         
---------------------|--------------------------|---------------------|
---------------------|--------------------------|---------------------|
---------------------|--------------------------|---------------------|
--L----6----6--------|--3-----1-----------1--1--|--L----1----1--------|
--L----6----6--------|-----1-----1--5--1-----1--|--L----1----1--------|
--L----6----6--------|-----------------------1--|--L----1----1--------|


     PM    PM    PM                                   PM    PM    PM        
  E  E  E  E  E  E  E  E     Q    Q    H           E  E  E  E  E  E  E  E   
--------------------------|---------------------|--------------------------|
--------------------------|---------------------|--------------------------|
--------------------------|---------------------|--------------------------|
--3-----1-----------1--3--|--L----3----3--------|--3-----1-----------1--5--|
-----1-----1--5--1-----3--|--L----3----3--------|-----1-----1--5--1-----5--|
-----------------------3--|--L----3----3--------|-----------------------5--|


  Q    Q    H           W                   W                 
---------------------|-------------------|-------------------|
---------------------|-------------------|-------------------|
---------------------|-------------------|-------------------|
--L----5----5--------|--L----------------|--L----------------|
--L----5----5--------|--L----------------|--L----------------|
--L----5----5--------|--L----------------|--L----------------|


  Gliss                                                                   
                      PM PM PM                   PM PM PM                 
  W                   E  E  E    E   H           E  E  E    E   H         
-------------------|--------------------------|--------------------------|
-------------------|--------------------------|--------------------------|
-------------------|--------------------------|--------------------------|
--L----------------|--------0--<>7~--L--------|--------0--<>6~--L--------|
--L----------------|-----0--------------------|-----0--------------------|
--L----------------|--0-----------------------|--0-----------------------|


  PM PM PM                            PM PM PM PM       
  E  E  E    E   H           E   S  S E  E  E  E  Q     
--------------------------|----------------------------|
--------------------------|----------------------------|
--------------------------|----------------------------|
--------0--<>5~--L--------|--4h--5p-4------------------|
-----0--------------------|-----------6--5--3--5--6----|
--0-----------------------|----------------------------|


  PM PM PM                   PM PM PM                 
  E  E  E    E   H           E  E  E    E   H         
--------------------------|--------------------------|
--------------------------|--------------------------|
--------------------------|--------------------------|
--------0--<>7~--L--------|--------0--<>7~--L--------|
-----0--------------------|-----0--------------------|
--0-----------------------|--0-----------------------|


  PM PM PM                   PM PM  PM PM PM PM PM PM                         
  E  E  E    E   H           S  S   S  S  S  S  S  S  S  S  S  S  S  S  S  S  
--------------------------|--------------------------------------------------|
--------------------------|--------------------------------------13-13-16-16-|
--------------------------|--------------------------12-12-15-15-------------|
--------0--<>7~--L--------|--------------10-10-13-13-------------------------|
-----0--------------------|--9--9--12-12-------------------------------------|
--0-----------------------|--------------------------------------------------|


  PM PM PM    PM PM PM PM PM PM    PM PM PM    PM PM PM PM PM PM  
  E  E  E  E  S  S  E  S  S  E     E  E  E  E  S  S  E  S  S  E   
--------------------------------|--------------------------------|
--------------------------------|--------------------------------|
--------------------------------|--------------------------------|
--------0--7--------------------|--------0--6--------------------|
-----0--------------------------|-----0--------------------------|
--0-----------0--0--0--0--0--0--|--0-----------0--0--0--0--0--0--|


  PM PM PM    PM PM PM PM PM PM             PM PM PM PM   SH    
  E  E  E  E  S  S  E  S  S  E     E   S  S E  E  E  E    Q     
--------------------------------|------------------------------|
--------------------------------|------------------------------|
--------------------------------|------------------------------|
--------0--5--------------------|--4h--5p-4--------------------|
-----0--------------------------|-----------6--5--3--5--<>6----|
--0-----------0--0--0--0--0--0--|------------------------------|


  PM PM PM    PM PM PM PM PM PM    PM PM PM    PM PM PM PM PM PM  
  E  E  E  E  S  S  E  S  S  E     E  E  E  E  S  S  E  S  S  E   
--------------------------------|--------------------------------|
--------------------------------|--------------------------------|
--------------------------------|--------------------------------|
--------0--7--------------------|--------0--6--------------------|
-----0--------------------------|-----0--------------------------|
--0-----------0--0--0--0--0--0--|--0-----------0--0--0--0--0--0--|


  PM PM PM    PM PM PM PM PM PM  
  E  E  E  E  S  S  E  S  S  E   
--------------------------------|
--------------------------------|
--------------------------------|
--------0--5--------------------|
-----0--------------------------|
--0-----------0--0--0--0--0--0--|


  PM PM  PM PM PM PM PM PM                         
  S  S   S  S  S  S  S  S  S  S  S  S  S  S  S  S  
--------------------------------------------------|
--------------------------------------13-13-16-16-|
--------------------------12-12-15-15-------------|
--------------10-10-13-13-------------------------|
--9--9--12-12-------------------------------------|
--------------------------------------------------|


  PM PM PM PM PM PM    PM PM PM PM PM    PM PM PM PM              
  S  S  E  S  S  E  E  E  S  S  S  S     E  S  S  E  E  H         
--------------------------------------|--------------------------|
--------------------------------------|--------------------------|
--------------------------------------|--------------------------|
--------------------------------------|--------------------------|
--0--0--0--0--0--0-----0--0--0--0--0--|--0--0--0--0--------------|
--0--0--0--0--0--0-----0--0--0--0--0--|--0--0--0--0--------------|


  PM PM PM PM PM PM    PM PM PM PM PM    PM PM PM PM              
  S  S  E  S  S  E  E  E  S  S  S  S     E  S  S  E  E  H         
--------------------------------------|--------------------------|
--------------------------------------|--------------------------|
--------------------------------------|--------------------------|
--------------------------------------|--------------------------|
--0--0--0--0--0--0-----0--0--0--0--0--|--0--0--0--0--------------|
--0--0--0--0--0--0-----0--0--0--0--0--|--0--0--0--0--------------|


  PM PM PM PM PM PM    PM PM PM PM PM    PM PM PM PM              
  S  S  E  S  S  E  E  E  S  S  S  S     E  S  S  E  E  H         
--------------------------------------|--------------------------|
--------------------------------------|--------------------------|
--------------------------------------|--------------------------|
--------------------------------------|--------------------------|
--0--0--0--0--0--0-----0--0--0--0--0--|--0--0--0--0--------------|
--0--0--0--0--0--0-----0--0--0--0--0--|--0--0--0--0--------------|


  PM PM PM PM PM PM    PM PM PM PM PM                 W         
  S  S  E  S  S  E  E  E  S  S  S  S     H            H         
--------------------------------------|------------------------|
--------------------------------------|------------------------|
--------------------------------------|------------------------|
--------------------------------------|--0---------------------|
--0--0--0--0--0--0-----0--0--0--0--0--|--0---------------------|
--0--0--0--0--0--0-----0--0--0--0--0--|--0--------17g19--------|


  PM PM PM    PM PM PM PM PM PM    PM PM PM    PM PM PM PM PM PM  
  E  E  E  E  S  S  E  S  S  E     E  E  E  E  S  S  E  S  S  E   
--------------------------------|--------------------------------|
--------------------------------|--------------------------------|
--------------------------------|--------------------------------|
--------0--7--------------------|--------0--6--------------------|
-----0--------------------------|-----0--------------------------|
--0-----------0--0--0--0--0--0--|--0-----------0--0--0--0--0--0--|


  PM PM PM    PM PM PM PM PM PM             PM PM PM PM   SH    
  E  E  E  E  S  S  E  S  S  E     E   S  S E  E  E  E    Q     
--------------------------------|------------------------------|
--------------------------------|------------------------------|
--------------------------------|------------------------------|
--------0--5--------------------|--4h--5p-4--------------------|
-----0--------------------------|-----------6--5--3--5--<>6----|
--0-----------0--0--0--0--0--0--|------------------------------|


  PM PM PM    PM PM PM PM PM PM    PM PM PM    PM PM PM PM PM PM  
  E  E  E  E  S  S  E  S  S  E     E  E  E  E  S  S  E  S  S  E   
--------------------------------|--------------------------------|
--------------------------------|--------------------------------|
--------------------------------|--------------------------------|
--------0--7--------------------|--------0--6--------------------|
-----0--------------------------|-----0--------------------------|
--0-----------0--0--0--0--0--0--|--0-----------0--0--0--0--0--0--|


  PM PM PM    PM PM PM PM PM PM  
  E  E  E  E  S  S  E  S  S  E   
--------------------------------|
--------------------------------|
--------------------------------|
--------0--5--------------------|
-----0--------------------------|
--0-----------0--0--0--0--0--0--|


  PM PM PM  PM  PM  PM  PM  PM  PM  PM  PM  PM  
  |--3--|   |---3---|   |---3---|   |---3---|   
  E  E  E   E   E   E   E   E   E   E   E   E   
-----------------------------------------------|
-----------------------------------------------|
-----------------------------------------------|
-----------------------10--10--10--13--13--13--|
--9--9--9--12--12--12--------------------------|
-----------------------------------------------|


  PM PM PM           PM PM PM            
  |--3--|  |---3--|  |--3--|  |---3--|   
  E  E  E  E   E  E  E  E  E  E   E  E   
----------------------------------------|
----------------------------------------|
----------------------------------------|
------------------7------------------6--|
-----------5h--6--------------4h--5-----|
--0--0--0------------0--0--0------------|


  PM PM PM                               
  |--3--|  |---3--|            |--3--|   
  E  E  E  E   E  E  S  S  S S E  E  E   
----------------------------------------|
----------------------------------------|
----------------------------------------|
------------------5--4h-5p-4---4--------|
-----------3h--4-------------6----6--5--|
--0--0--0-------------------------------|


  PM PM PM           PM PM PM            
  |--3--|  |---3--|  |--3--|  |---3--|   
  E  E  E  E   E  E  E  E  E  E   E  E   
----------------------------------------|
----------------------------------------|
----------------------------------------|
------------------7------------------6--|
-----------5h--6--------------4h--5-----|
--0--0--0------------0--0--0------------|


  PM PM PM                               
  |--3--|  |---3--|            |--3--|   
  E  E  E  E   E  E  S  S  S S E  E  E   
----------------------------------------|
----------------------------------------|
----------------------------------------|
------------------5--4h-5p-4---4--------|
-----------3h--4-------------6----6--5--|
--0--0--0-------------------------------|


  PM PM PM           PM PM PM            
  |--3--|  |---3--|  |--3--|  |---3--|   
  E  E  E  E   E  E  E  E  E  E   E  E   
----------------------------------------|
----------------------------------------|
----------------------------------------|
------------------7------------------6--|
-----------5h--6--------------4h--5-----|
--0--0--0------------0--0--0------------|


  PM PM PM                               
  |--3--|  |---3--|            |--3--|   
  E  E  E  E   E  E  S  S  S S E  E  E   
----------------------------------------|
----------------------------------------|
----------------------------------------|
------------------5--4h-5p-4---4--------|
-----------3h--4-------------6----6--5--|
--0--0--0-------------------------------|


  PM PM PM           PM PM PM            
  |--3--|  |---3--|  |--3--|  |---3--|   
  E  E  E  E   E  E  E  E  E  E   E  E   
----------------------------------------|
----------------------------------------|
----------------------------------------|
------------------7------------------6--|
-----------5h--6--------------4h--5-----|
--0--0--0------------0--0--0------------|


  PM PM PM                                          PM PM PM PM PM PM  
  |--3--|  |---3--|            |--3--|                                 
  E  E  E  E   E  E  S  S  S S E  E  E     E   S  S E  E  E  E  E  E   
----------------------------------------|-----------------------------|
----------------------------------------|-----------------------------|
----------------------------------------|-----------------------------|
------------------5--4h-5p-4---4--------|--4h--5p-4-------------------|
-----------3h--4-------------6----6--5--|-----------6--5--3--5--6--5--|
--0--0--0-------------------------------|-----------------------------|


           PM PM PM PM                                                  
  E   S  S E  E  E  E  E  E     W                   H.           E  E   
-----------------------------|-------------------|---------------------|
-----------------------------|-------------------|---------------------|
-----------------------------|-------------------|---------------------|
--------------------------1--|--L----------------|--L------------L--3--|
--3h--5p-3-1--0--1--0-----1--|--L----------------|--L------------L--3--|
-----------------------5--1--|--L----------------|--L------------L--3--|


  W                   H.           E  E     W                 
-------------------|---------------------|-------------------|
-------------------|---------------------|-------------------|
-------------------|---------------------|-------------------|
--L----------------|--L------------L--0--|--L----------------|
--L----------------|--L------------L--0--|--L----------------|
--L----------------|--L------------L--0--|--L----------------|


  H.           E  E     W                   H.           E  E   
---------------------|-------------------|---------------------|
---------------------|-------------------|---------------------|
---------------------|-------------------|---------------------|
--L------------L--5--|--L----------------|--L------------L--1--|
--L------------L--5--|--L----------------|--L------------L--1--|
--L------------L--5--|--L----------------|--L------------L--1--|


  W                   H.           E  E     W                 
-------------------|---------------------|-------------------|
-------------------|---------------------|-------------------|
-------------------|---------------------|-------------------|
--L----------------|--L------------L--0--|--L----------------|
--L----------------|--L------------L--0--|--L----------------|
--L----------------|--L------------L--0--|--L----------------|


  H.           E  E     Q    Q    E  E  E  E     Q    Q    Q.     E   
---------------------|------------------------|----------------------|
---------------------|------------------------|----------------------|
---------------------|------------------------|----------------------|
--L------------L--5--|--L----5----5--5--5--5--|--L----5----5------5--|
--L------------L--5--|--L----5----5--5--5--5--|--L----5----5------5--|
--L------------L--5--|--L----5----5--5--5--5--|--L----5----5------5--|


                                                           PM        PM      
  Q    Q    H             H.            E  E     E  E   E  E  E   E  E  E    
---------------------|------------------------|-----------------------------|
---------------------|------------------------|-----------------------------|
---------------------|------------------------|-----7s--5-----5s--7-----7s--|
--L----5-------------|---------------------5--|--L--------------------------|
--L----5-------------|--/17s------------5--5--|--L--5s--3--3--3s--5--5--5s--|
--L----5-------------|--/17s------------5--5--|--L--------------------------|


        PM      PM    PM                PM PM            PM    PM    PM PM     
   Q    E   E   E  E  E  E     H        E  E  Q       E  E  E  E  E  E  E  E   
----------------------------|----------------------|--------------------------|
----------------------------|----------------------|--------------------------|
--10-------12------7--------|----------------------|--------------------------|
-------------------------1--|--L--------------1----|--3-----3-----3--------5--|
---8----8--10--10--5--5--1--|--L--------1--1--1----|--3--3--3--3--3--3--7--5--|
-------------------------1--|--L--------1--1--1----|--3--3--3--3--3--3--7--5--|


            PM        PM              PM      PM    PM     
  E  E   E  E  E   E  E  E       Q    E   E   E  E  E  E   
-----------------------------|----------------------------|
-----------------------------|----------------------------|
-----7s--5-----5s--7-----7s--|--10-------12------7--------|
--L--------------------------|-------------------------1--|
--L--5s--3--3--3s--5--5--5s--|---8----8--10--10--5--5--1--|
--L--------------------------|-------------------------1--|


       PM PM PM PM              PM    PM    PM     
  Q    E  E  E  E  Q       Q    E  E  E  E  E  E   
------------------------|-------------------------|
------------------------|-------------------------|
------------------------|-------------------------|
--L----------------1----|--5-------3-----5-----5--|
--L----1--1--1--1--1----|--5----5--3--3--5--5--5--|
--L----1--1--1--1--1----|--5----5--3--3--5--5--5--|


            PM        PM              PM      PM      PM     
  E  E   E  E  E   E  E  E       Q    E   E   E   E   E  E   
-----------------------------|------------------------------|
-----------------------------|------------------------------|
-----7s--5-----5s--7-----7s--|--10-------12------14---------|
--L--------------------------|---------------------------1--|
--L--5s--3--3--3s--5--5--5s--|---8----8--10--10--12--12--1--|
--L--------------------------|---------------------------1--|


            PM PM            PM    PM    PM        
  Q    Q    E  E  Q       E  E  E  E  E  E  E  E   
-----------------------|--------------------------|
-----------------------|--------------------------|
-----------------------|--------------------------|
--L----1----------1----|--3--------------------5--|
--L----1----1--1--1----|-----3--6--3--5--3--6--5--|
--L----1----1--1--1----|-----------------------5--|


            PM        PM              PM      PM    PM     
  E  E   E  E  E   E  E  E       Q    E   E   E  E  E  E   
-----------------------------|----------------------------|
-----------------------------|----------------------------|
-----7s--5-----5s--7-----7s--|--10-------12------7-----8--|
--L--------------------------|----------------------------|
--L--5s--3--3--3s--5--5--5s--|---8----8--10--10--5--5--6--|
--L--------------------------|----------------------------|


                                                         PM PM PM PM PM PM  
  Q    Q     E  E  Q       Q    Q    E  E  Q        Q    E  E  E  E  E  E   
------------------------|-----------------------|--------------------------|
------------------------|------------8--6-------|--------------------------|
--L----8----10--8--8----|--8----8----------8----|--10----------------------|
-------8-----------8----|--8----8----------8----|--10----------------------|
--L----6-----------6----|--6----6----------6----|---8----8--8--8--8--8--8--|
------------------------|-----------------------|--------------------------|


                                                PM    PM    PM        
   W                   H         H           E  E  E  E  E  E  E  E   
--------------------|---------------------|--------------------------|
--------------------|---------------------|--------------------------|
--10----------------|--L--------10--------|--------------------------|
--10----------------|--L--------10--------|--3-----1-----------1--1--|
---8----------------|--L---------8--------|-----1-----1--5--1-----1--|
--------------------|---------------------|-----------------------1--|


                           PM    PM    PM                              
  Q    Q    H           E  E  E  E  E  E  E  E     Q    Q    H         
---------------------|--------------------------|---------------------|
---------------------|--------------------------|---------------------|
---------------------|--------------------------|---------------------|
--L----1----1--------|--3-----1-----------1--3--|--L----3----3--------|
--L----1----1--------|-----1-----1--5--1-----3--|--L----3----3--------|
--L----1----1--------|-----------------------3--|--L----3----3--------|


     PM    PM    PM                                   PM    PM    PM        
  E  E  E  E  E  E  E  E     Q    Q    H           E  E  E  E  E  E  E  E   
--------------------------|---------------------|--------------------------|
--------------------------|---------------------|--------------------------|
--------------------------|---------------------|--------------------------|
--3-----1-----------1--5--|--L----5----5--------|--3-----1-----------1--6--|
-----1-----1--5--1-----5--|--L----5----5--------|-----1-----1--5--1-----6--|
-----------------------5--|--L----5----5--------|-----------------------6--|


                           PM    PM    PM                              
  Q    Q    H           E  E  E  E  E  E  E  E     Q    Q    H         
---------------------|--------------------------|---------------------|
---------------------|--------------------------|---------------------|
---------------------|--------------------------|---------------------|
--L----6----6--------|--3-----1-----------1--1--|--L----1----1--------|
--L----6----6--------|-----1-----1--5--1-----1--|--L----1----1--------|
--L----6----6--------|-----------------------1--|--L----1----1--------|


     PM    PM    PM                                   PM    PM    PM        
  E  E  E  E  E  E  E  E     Q    Q    H           E  E  E  E  E  E  E  E   
--------------------------|---------------------|--------------------------|
--------------------------|---------------------|--------------------------|
--------------------------|---------------------|--------------------------|
--3-----1-----------1--3--|--L----3----3--------|--3-----1-----------1--5--|
-----1-----1--5--1-----3--|--L----3----3--------|-----1-----1--5--1-----5--|
-----------------------3--|--L----3----3--------|-----------------------5--|


  Q    Q    H           H.           Q        W                 
---------------------|---------------------|-------------------|
---------------------|---------------------|-------------------|
---------------------|---------------------|-------------------|
--L----5----5--------|--L------------LS----|--8----------------|
--L----5----5--------|--L------------LS----|--8----------------|
--L----5----5--------|--L------------LS----|--8----------------|


     PM    PM    PM                                   PM    PM    PM        
  E  E  E  E  E  E  E  E     Q    Q    H           E  E  E  E  E  E  E  E   
--------------------------|---------------------|--------------------------|
--------------------------|---------------------|--------------------------|
--------------------------|---------------------|--------------------------|
--3-----1-----------1--1--|--L----1----1--------|--3-----1-----------1--3--|
-----1-----1--5--1-----1--|--L----1----1--------|-----1-----1--5--1-----3--|
-----------------------1--|--L----1----1--------|-----------------------3--|


                           PM    PM    PM                              
  Q    Q    H           E  E  E  E  E  E  E  E     Q    Q    H         
---------------------|--------------------------|---------------------|
---------------------|--------------------------|---------------------|
---------------------|--------------------------|---------------------|
--L----3----3--------|--3-----1-----------1--5--|--L----5----5--------|
--L----3----3--------|-----1-----1--5--1-----5--|--L----5----5--------|
--L----3----3--------|-----------------------5--|--L----5----5--------|


     PM    PM    PM                                   PM    PM    PM        
  E  E  E  E  E  E  E  E     Q    Q    H           E  E  E  E  E  E  E  E   
--------------------------|---------------------|--------------------------|
--------------------------|---------------------|--------------------------|
--------------------------|---------------------|--------------------------|
--3-----1-----------1--6--|--L----6----6--------|--3-----1-----------1--1--|
-----1-----1--5--1-----6--|--L----6----6--------|-----1-----1--5--1-----1--|
-----------------------6--|--L----6----6--------|-----------------------1--|


                           PM    PM    PM                              
  Q    Q    H           E  E  E  E  E  E  E  E     Q    Q    H         
---------------------|--------------------------|---------------------|
---------------------|--------------------------|---------------------|
---------------------|--------------------------|---------------------|
--L----1----1--------|--3-----1-----------1--3--|--L----3----3--------|
--L----1----1--------|-----1-----1--5--1-----3--|--L----3----3--------|
--L----1----1--------|-----------------------3--|--L----3----3--------|


     PM    PM    PM                                                    
  E  E  E  E  E  E  E  E     Q    Q    H           H.           Q      
--------------------------|---------------------|---------------------|
--------------------------|---------------------|---------------------|
--------------------------|---------------------|---------------------|
--3-----1-----------1--5--|--L----5----5--------|--L------------LS----|
-----1-----1--5--1-----5--|--L----5----5--------|--L------------LS----|
-----------------------5--|--L----5----5--------|--L------------LS----|


                         PM    PM    PM                              
  W                   E  E  E  E  E  E  E  E     Q    Q    H         
-------------------|--------------------------|---------------------|
-------------------|--------------------------|---------------------|
-------------------|--------------------------|---------------------|
--8----------------|--3-----1-----------1--1--|--L----1----1--------|
--8----------------|-----1-----1--5--1-----1--|--L----1----1--------|
--8----------------|-----------------------1--|--L----1----1--------|


     PM    PM    PM                                   PM    PM    PM        
  E  E  E  E  E  E  E  E     Q    Q    H           E  E  E  E  E  E  E  E   
--------------------------|---------------------|--------------------------|
--------------------------|---------------------|--------------------------|
--------------------------|---------------------|--------------------------|
--3-----1-----------1--3--|--L----3----3--------|--3-----1-----------1--5--|
-----1-----1--5--1-----3--|--L----3----3--------|-----1-----1--5--1-----5--|
-----------------------3--|--L----3----3--------|-----------------------5--|


                           PM    PM    PM                              
  Q    Q    H           E  E  E  E  E  E  E  E     Q    Q    H         
---------------------|--------------------------|---------------------|
---------------------|--------------------------|---------------------|
---------------------|--------------------------|---------------------|
--L----5----5--------|--3-----1-----------1--6--|--L----6----6--------|
--L----5----5--------|-----1-----1--5--1-----6--|--L----6----6--------|
--L----5----5--------|-----------------------6--|--L----6----6--------|


     PM    PM    PM                                   PM    PM    PM        
  E  E  E  E  E  E  E  E     Q    Q    H           E  E  E  E  E  E  E  E   
--------------------------|---------------------|--------------------------|
--------------------------|---------------------|--------------------------|
--------------------------|---------------------|--------------------------|
--3-----1-----------1-----|-------1----1--------|--3-----1-----------1--3--|
-----1-----1--5--1--------|-------1----1--------|-----1-----1--5--1-----3--|
--------------------------|-------1----1--------|-----------------------3--|


                           PM    PM    PM                              
  Q    Q    H           E  E  E  E  E  E  E  E     Q    Q    H         
---------------------|--------------------------|---------------------|
---------------------|--------------------------|---------------------|
---------------------|--------------------------|---------------------|
--L----3----3--------|--3-----1-----------1--5--|--L----5----5--------|
--L----3----3--------|-----1-----1--5--1-----5--|--L----5----5--------|
--L----3----3--------|-----------------------5--|--L----5----5--------|


                                          PM PM PM PM PM PM PM PM            
  W                   W                   S  S  S  S  S  S  S  S  E  Q.      
-------------------|-------------------|------------------------------------|
-------------------|-------------------|------------------------------------|
-------------------|-------------------|------------------------------------|
--L----------------|--L----------------|--------------------3--5--5--1------|
--L----------------|--L----------------|-----------3--5--6-----------1------|
--L----------------|--L----------------|--5--7--8--------------------1------|


  PM PM PM PM PM PM    PM PM PM PM PM    PM PM PM PM              
  S  S  E  S  S  E  E  E  S  S  S  S     E  S  S  E  E  H         
--------------------------------------|--------------------------|
--------------------------------------|--------------------------|
--------------------------------------|--------------------------|
--------------------------------------|--------------------------|
--0--0--0--0--0--0-----0--0--0--0--0--|--0--0--0--0--------------|
--0--0--0--0--0--0-----0--0--0--0--0--|--0--0--0--0--------------|


  PM PM PM PM PM PM    PM PM PM PM PM    PM PM PM PM              
  S  S  E  S  S  E  E  E  S  S  S  S     E  S  S  E  E  H         
--------------------------------------|--------------------------|
--------------------------------------|--------------------------|
--------------------------------------|--------------------------|
--------------------------------------|--------------------------|
--0--0--0--0--0--0-----0--0--0--0--0--|--0--0--0--0--------------|
--0--0--0--0--0--0-----0--0--0--0--0--|--0--0--0--0--------------|


  PM PM PM PM PM PM    PM PM PM PM PM    PM PM PM PM              
  S  S  E  S  S  E  E  E  S  S  S  S     E  S  S  E  E  H         
--------------------------------------|--------------------------|
--------------------------------------|--------------------------|
--------------------------------------|--------------------------|
--------------------------------------|--------------------------|
--0--0--0--0--0--0-----0--0--0--0--0--|--0--0--0--0--------------|
--0--0--0--0--0--0-----0--0--0--0--0--|--0--0--0--0--------------|


  PM PM PM PM PM PM    PM PM PM PM PM    PM PM PM PM              W    
  S  S  E  S  S  E  E  E  S  S  S  S     E  S  S  E  E  Q    E    E    
--------------------------------------|-------------------------------|
--------------------------------------|-------------------------------|
--------------------------------------|-------------------------------|
--------------------------------------|-----------------1----0--------|
--0--0--0--0--0--0-----0--0--0--0--0--|--0--0--0--0-----1----0--<>5b--|
--0--0--0--0--0--0-----0--0--0--0--0--|--0--0--0--0-----1----0--------|


  Q.     E   H          
----------------------||
----------------------||
----------------------||
----------------------||
--L------L\-----------||
----------------------||




Duration Legend
---------------
W - whole
H - half
Q - quarter
E - 8th
S - 16th
T - 32nd
X - 64th
. - note dotted
|-n-|  - n-tuplets


Tablature Legend
----------------
L - tied note
x - dead note
g - grace note
(n) - ghost note
> - accentuded note
NH - natural harmonic
AH - artificial harmonic
TH - tapped harmonic
SH - semi harmonic
PH - pitch harmonic
h - hammer on
p - pull off
b - bend
br - bendRelease
pb - preBend
pbr - preBendRelease
brb - bendReleaseBend
\n/ - tremolo bar dip
\n - tremolo bar dive
-/n - tremolo bar Release up
/n\ - tremolo bar inverted dip
/n - tremolo bar return
-\n - tremolo bar Release down
S - shift slide
s - legato slide
/ -  slide into from below or out of upwards
\ -  slide into from above or out of downwards
~ - vibrato
W - wide vibrato
tr - trill
TP - tremolo picking
T - tapping
S - slap
P - pop
< - fade in
^ - brush up
v - brush down
Добавлено: 09.07.2013
Вам также может быть интересно:
Другие материалы по этой песне:
  • Аккорды и текст

Страница создана 09.07.2013
http://primanota.ru/deluhi/frontier-chords.htm
Привет, Гость.
Предлагаем пройти революционный курс по гитаре.
Подарок от PrimaNota.Ru, забирай!