PrimaNota.ru - самый крупный в мире бесплатный архив песенных текстов, аккордов, табулатур и нот


Delta V - Sul Filo - текст песни, таба, видео

Регистрация Запомнить меня
Войти через:  Facebook Google Twitter Vk Yandex Mail.ru

Delta V - Sul Filo - текст песни, таба, видео

Печатать
Просмотров: 124
Уроки эстрадного вокала в Санкт-Петербурге
		   --------
Fioi, ecco a voi l'ultimo singolo dei Delta V... a me strapiace...
spero di non aver fatto invano questa trascrizione... FATEMI SAPERE!!!

SUL FILO - DELTA V
done by nuke.

Am C F
Am C F

   LAm   DO       FA    REm
e|-----|--------|-----|-----|-------------
b|-----|--------|-----|-----|------------
g|-----|--------|-----|-----|-----------
d|-----|----2-5-|-----|-----|----------
a|-----|--------|-3---|-----|---------
e|-5---|-3------|-----|-----|--------
   LAm   DO       FA    SOL
e|-----|--------|-----|-----|-
b|-----|--------|-----|-----|-
g|-----|--------|-----|-----|-
d|-----|----2-5-|-----|-----|-
a|-----|--------|-3---|-----|-
e|-5---|-3------|-----|-----|-

REm		   SOL
Guardo dritto avanti a me
DO   SI/SOL FA
respirando  come se
LA#
tutta l'aria limpida
MI
fosse l'ultima.

REm		     SOL
Tutto e' fermo intorno a me
DO         SI/SOL  FA
chiudo gli occhi e sento che
LA#
solo il vuoto e' sempre li'
MI
ad attendermi...

[bridge_on]
SOL
Un'acrobata non vola
FA
ma cammina sempre sola
LAm
su quel filo teso tra
   SOL
la terra e il cielo.
[bridge_off]

[chorus_on]
LAm			  DO			 FA	REm
	E mi lascio indietro il mio passato
LAm                  DO			    FA    SOL
	tutto il tempo che fin qui ho sprecato
LAm                DO       FA     REm
	a inventare inutili parole
LAm              DO           FA    SOL
	a trovare strade per il sole.
[chorus_off]

LAm DO LAm
   LAm     DO     LAm    
e|------|-------|------|
b|------|-------|------|
g|------|-------|------|
d|---2--|-----5-|------|
a|------|-3-----|------|
e|-5----|-------|--5---|

REm		  SOL
Fare il vuoto dietro me
DO    SI/SOL FA
e' sembrato  facile
LA#            
arrivai da fino a qui
    MI
non posso arrendermi.

REm              SOL
Alza gli occhi e guarda su
DO    SI/SOL FA
pensa se   cadessi giu'
LA#
per un attimo sarei
MI
tutto cio' che vuoi...

[bridge_on]
SOL
Esco qui sospesa in alto
FA
sono io per questo salto
LAm
manca solo un passo per
   SOL
cambiare tutto.
[bridge_off]

[chorus_on]
LAm			  DO			 FA	REm
	Ho lasciato indietro il mio passato
LAm                   DO	       FA    SOL
	tutto cio' che avevo ora e' cambiato
LAm             DO          FA     REm
	ed inventero' nuove parole
LAm                DO             FA    SOL
	per trovare strade verso il sole.
[chorus_off]

LAm RE# SOL# SOL-

          LAm           RE#
e|------|-------------|-------------|-
b|------|-------------|-------------|--
g|------|-------------|-------------|--
d|------|----------5--|-----------5-|--
a|------|---7---------|----6--------|---
e|-8-7--|5-------8----|-4------8----|--

   SOL#		 SOL-
e|-------------|-----------------
b|-------------|----------------
g|-------------|---------------
d|---------5---|--------------
a|----6------6-|--5b6b5b6b5b6
e|-4----8------|------------

[chorus_on]
LAm			  DO			 FA	REm
	E mi lascio indietro il mio passato
LAm                  DO			    FA    SOL
	tutto il tempo che fin qui ho sprecato
LAm                DO       FA     REm
	a inventare inutili parole
LAm              DO           FA    SOL
	a trovare strade per il sole.
[chorus_off]

LAm DO FA REm
LAm DO FA SOL
LAm FA


Per qualsiasi cosa...
nuke.

http://members.xoom.it/nuke
mailto:unklenuke@geocities.com

     
Добавлено: 04.11.2013
Другие материалы по этой песне:
  • Аккорды и текст

Страница создана 02.06.2012
http://primanota.ru/delta-v/sul-filo-chords.htm
Привет, Гость.
Предлагаем пройти революционный курс по гитаре.
Подарок от PrimaNota.Ru, забирай!