PrimaNota.ru - самый крупный в мире бесплатный архив песенных текстов, аккордов, табулатур и нот


Delta Sleep - Camp Adventure - таба, видео

Регистрация Запомнить меня
Войти через:  Facebook Google Twitter Vk Yandex Mail.ru

Delta Sleep - Camp Adventure - таба, видео

Печатать
Просмотров: 62
-------------------------------------------------------------------------------
                             CAMP ADVENTURE - Delta Sleep
-------------------------------------------------------------------------------
Tabbed by: Zedwards
E-mail: zedwards0409@gmail.com

Tuning: EADGBe
Intro:
e|---------0-----------------------------------------------------------------|
B|----4------4------------4--------4-----------------------------------------|
G|---4--------4-----------4--------4-----------------------------------------|
D|--2---------------------6--------4-----------------------------------------|
A|------------------------6--------4-----------------------------------------|
E|---------------------------------------------------------------------------|

e|---------0-----------------2-----------------------------------------------|
B|----4------4--------------2------------------------------------------------| Here you tap the harmonic on
G|---4--------4------------4----------------------*11*-----------------------| the 11th fret without
D|--2---------------------2--------------------------------------------------| releasing the 4th fret of the
A|---------------------------------------------------------------------------| G string.
E|---------------------------------------------------------------------------|

e|---------0-----------------------------------------------------------------|
B|----4------4------4-----4----4----4----------4----7------4-----4---4-------|
G|---4--------4------4-----4----4----4--------4-----------4-------4---4------|
D|--2--------------2-----2----2----2---------4-----------4------4---4--------|
A|------------------------------------------6-----------4--------------------|
E|---------------------------------------------------------------------------|

                      | Verse starts here
e|------------0--------------------------------------------------------------|
B|----4---4-----4------4---4---4---4-----4---4---4---4-----4---4---4---4-----|
G|---4-----4-----4------4---4---4---4-----4---4---4---4-----4---4---4---4----|
D|--2----2------------2---2---2---2-----6---6---6---6-----4---4---4---4------|
A|---------------------------------------------------------------------------|
E|---------------------------------------------------------------------------|

e|---------------------------------------------------------------------------|
B|---4---4---4---4-----------------------------------------------------------| The last four chords in the
G|----4---4---4---4----------------------------------------------------------| picking pattern repeat
D|--2---2---2---2------------------------------------------------------------| throughout the verses.
A|---------------------------------------------------------------------------|
E|---------------------------------------------------------------------------|

The solo:
e|------------0--------------------------------------------------------------|
B|----4---4----4--------4---2h4------------7---------------2-----------------|
G|---4-----4----4--------------3--------8----8----------3----3---------------|
D|--2----2------------4--------------6---------9-----4---------4-------------|
A|---------------------------------------------------------------------------|
E|---------------------------------------------------------------------------|

e|------------0----------------------------7---------------------------------|
B|----4---4----4--------4-----4h7-----------7--------------2-----------------|
G|---4-----4----4----------6-----------4-----4----------3----3---------------| X 2
D|--2----2------------4--------------6---------------4---------4-------------|
A|---------------------------------------------------------------------------|
E|---------------------------------------------------------------------------|

That's it - listen to the song for when chords are held, and experiment with it.
Good luck!


************************************

| /   slide up
| \   slide down
| h   hammer-on
| p   pull-off
| ~   vibrato
| *   harmonic
| x   Mute note
| b   Bend
| pb  Pre-bend
| br  Bend release
| pbr Pre-bend release
| brb Bend release bend

************************************
Добавлено: 14.06.2016
Другие материалы по этой песне:
  • Аккорды и текст

Страница создана 14.06.2016
http://primanota.ru/delta-sleep/camp-adventure-chords.htm
Привет, Гость.
Предлагаем пройти революционный курс по гитаре.
Подарок от PrimaNota.Ru, забирай!