PrimaNota.ru - самый крупный в мире бесплатный архив песенных текстов, аккордов, табулатур и нот


The Delta Riggs - Rah Rah Radio - аккорды и текст, видео

Регистрация Запомнить меня
Войти через:  Facebook Google Twitter Vk Yandex Mail.ru

The Delta Riggs - Rah Rah Radio - аккорды и текст, видео

Печатать
Просмотров: 65
Rah Rah Radio
The Delta Riggs
-------------------------------------------------------------------------------
                             Rah Rah Radio - Les Riggs
-------------------------------------------------------------------------------
Tabbed by: Charlie B
E-mail: charles.band99@gmail.com

Tuning: Standard

This is the first Delta Riggs tab on the internet! Simple song but hella cool!
Love ya boiz

    D   F    G    A
e|--x---x----x----x---|
B|--x---x----x----x---|
G|--7---10---12---14--|
D|--7---10---12---14--|
A|--5---8----10---12--|
E|--x---x----x----x---|

Intro - D, G, F (figure out pattern)

D                      G
I flew into London town
D             
They said to turn your radio on
                                      G      F
They said there was nothing going on, and he said
D                                              G      F
You should've gone back to where you come from, and he said
D                                            G     F
You should've gone back to where you come from

D                    G
I went to Saint Paris
D
They wouldn't give me no colour TV
                           G      F
I had to turn my radio on, and he said
D                             G      F
You no wear no Louis Vuitton, and he said
D                            G    F
You no wear no Louis Vuitton

D                          G
So I went to the Mardi Gras
D
I just want to be in a parade
                                   G      F
The man said your hair's too long, and he said
D                                              G      F
You should've gone back to where you come from, and he said
D10h12p10G      F
You should've gone back to where you come from, and he said
D
You should've gone back to where you come from

G           A
OH YEAH, OH YEAH
DO IT MAN!

Solo Riff:
(not accurate, just fiddle with G pentatonic)
e|------------------------------------------------| \\
B|------------------------------------------------|  \\
G|------------------------------------------------|   \\
D|------------------10h12p10------10h12p10--------|    \\
A|----------10--12------------12-----------12--10-|     \\
E|--10--13----------------------------------------|     ||
                                                        || x2
e|------------------------------------------------|     ||
B|------------------------------------------------|     //
G|------------------10h12p10-10-10h12p10-10-------|    //
D|------------------------------------------------|   //
A|----------10--12--------------------------------|  //
E|--10--13----------------------------------------| //

e|-------| \\
B|--10---|  \\
G|--12b--|  || Play this at end of solo riff
D|-------|  || above after it's played twice
A|-------|  //
E|-------| //

So I went to Amsterdam
You know I really didn't give a fuck
I said give me one punk rock song, and she said
D                                              G      F
You should've gone back to where you come from, and she said
D                                            G     F
You should've gone back to where you come from

D
So I went to Mexico
Hell I have no-where to go, and I said
Hey baby why'd you take so long, and she said
D                                              G      F
You should've gone back to where you come from, and she said
D                                              G     F
You should've gone back to where you come from, and she said
D                                            G     F
You should've gone back to where you come from

G           A
OH YEAH, OH YEAH
YOU GOTTA DO IT MAN!

Solo Riff:
e|------------------------------------------------| \\
B|------------------------------------------------|  \\
G|------------------------------------------------|   \\
D|------------------10h12p10------10h12p10--------|    \\
A|----------10--12------------12-----------12--10-|     \\
E|--10--13----------------------------------------|     ||
                                                        || x4
e|------------------------------------------------|     ||
B|------------------------------------------------|     //
G|------------------10h12p10-10-10h12p10-10-------|    //
D|------------------------------------------------|   //
A|----------10--12--------------------------------|  //
E|--10--13----------------------------------------| //

                                             G     F
You should've gone back to where you come from
                                             G     F
You should've gone back to where you come from
                                             G     F
You should've gone back to where you come from
 
You should've gone back to where you come from

.......

WOO!

D - G(2) - F(1) x4

************************************

| /   slide up
| \   slide down
| h   hammer-on
| p   pull-off
| ~   vibrato
| +   harmonic
| x   Mute note
| b   Bend
| pb  Pre-bend
| br  Bend release
| pbr Pre-bend release
| brb Bend release bend

************************************
Добавлено: 19.04.2016
Другие материалы по этой песне:
  • Аккорды и текст

Страница создана 19.04.2016
http://primanota.ru/delta-riggs/rah-rah-radio-chords.htm
Привет, Гость.
Предлагаем пройти революционный курс по гитаре.
Подарок от PrimaNota.Ru, забирай!