PrimaNota.ru - самый крупный в мире бесплатный архив песенных текстов, аккордов, табулатур и нот


Delta Rae - Dead End Road - аккорды и текст, видео

Регистрация Запомнить меня
Войти через:  Facebook Google Twitter Vk Yandex Mail.ru

Delta Rae - Dead End Road - аккорды и текст, видео

Печатать
Просмотров: 60
Dead End Road
Delta Rae
-------------------------------------------------------------------------------
                             DEAD END ROAD - Delta Rae
-------------------------------------------------------------------------------
                                                           CAPO 2
Riff 1:
e|-------------------------------------------------|
B|-------------------------------------------------|
G|---------------2-2-1-----------------------------|
D|-----------0---------4-2-----------0-2---0-------|
A|-0-2-4-2-4---4-----------0-2-4-2-4-----2---4-2-0-|
E|-------------------------------------------------|

Riff 2:
e|-------------------------------------------------|
B|-------------------------------------------------|
G|---------------2-2-1-----------------7-6---------|
D|-----------0---------4-2-------------7-6---------|
A|-0-2-4-2-4---4-----------0-2-4-2-4-5-5-4---------|
E|-------------------------------------------------|

Riff 3:
e|-11-5-0------------------------------------------|
B|-------------------------------------------------|
G|-------------------------------------------------|
D|-------------------------------------------------|
A|-------------------------------------------------|
E|-------------------------------------------------|

Riff 1x2


Verse 1:
A         B   D                    A           B        E
The air's crisp. Kinda way that it sobers your mind and drives you back home again.
A   B    D                         A             B       E
You lift all the burdens from your shoulders and realize you've reached the end.

Riff 2

Chorus:
        A     F#          E
Tell me honestly what you came here for.
            A   F#             E
When you've had enough but you beg for more.
        A       F#            E
And you talk so tough but you can't ignore.
            F#                  D        A
That you're done driving down a dead end road.
F#                     D        A
Done driving on down a dead end road.

Riff 1x2

Verse 2:
A    B      D                      A            B                  E
Late nights, don't they stretch on forever? You never thought that you would have to ask for help.
A    B        D                        A             B         E
It's alright, baby, it's just a little static on the line that time is gonna figure out.

Riff 2
You're gonna figure it out


Chorus:
        A     F#          E
Tell me honestly what you came here for.
            A   F#             E
When you've had enough but you beg for more.
        A       F#            E
And you talk so tough but you can't ignore.
            F#                  D        A
That you're done driving down a dead end road.
F#                     D        A
Done driving on down a dead end road.

E F# Riff 3
E F# Riff 3

E          F#       Riff 3
You missed it, the sound of tires on the ground
E          F#       Riff 3
You missed it, the stinging sign, the open arms
E          F#       Riff 3
You missed it, after the miles you've already traveled
E          F#                D         A
You missed it, how could you ever look behind?



Chorus:
        A     F#          E
Tell me honestly what you came here for.
            A   F#             E
When you've had enough but you beg for more.
        A       F#            E
And you talk so tough but you can't ignore.
            F#                  D        A
That you're done driving down a dead end road.
F#                     D        A
Done driving on down a dead end road.
       F#                  D        A
You're done driving down a dead end road
F#                  D        A
Done driving down a dead end road
Добавлено: 15.11.2015
Другие материалы по этой песне:
  • Аккорды и текст

Страница создана 15.11.2015
http://primanota.ru/delta-rae/dead-end-road-chords.htm
Привет, Гость.
Предлагаем пройти революционный курс по гитаре.
Подарок от PrimaNota.Ru, забирай!