PrimaNota.ru - самый крупный в мире бесплатный архив песенных текстов, аккордов, табулатур и нот


Deliverance - Weapons Of Our Warfare - текст песни, таба, видео

Регистрация Запомнить меня
Войти через:  Facebook Google Twitter Vk Yandex Mail.ru

Deliverance - Weapons Of Our Warfare - текст песни, таба, видео

Печатать
Просмотров: 150
Song: "Weapons Of Our Warfare"
Artist: Deliverance
Album: Weapons of Our Warfare
Transcribed By: Big Bozz brain_eatin_zombie@live.com

Tuning: 1/2 Step Down (Eb,Ab,Db,Gb,Bb,Eb)

INTRO:
|-------------------------------------|
|-------------------------------------|
|-------------------------------------|
|---3-------3-------------3-------3---|
|-2-1-2---2-1-2-----------1-2---2-1-2-|
|-0---0---0---0---0000-000--0---0---0-|
PM                .... ...

INTRO B:
|-------------------|
|-------------------|
|-------------------|
|-------------------|
|-2-5-4---2-5-4---X-|
|-0-3-2---0-3-2---X-|

INTRO C:
|-----------------------|
|-----------------------|
|-----------------------|
|-3-------3-------------|
|-1-2---2-1-2---6555442-|
|---0---0---0---4333220-|
PM              .......

VERSE:
|-------------------------------------------------------|
|-------------------------------------------------------|
|-------------------------------------------------------|
|-------------------------------------------------------|
|-------------------------------------------------------|
|-0-0-1p0-0-0-0-0-2p0-0-7p0-0-6-000-1p0-0-0-0-0-2p0-0-7-|
PM. .     . . . .     .     .   ...     . . . .     .

BRIDGE: (guitar 1)
|------------------------------------------------------------|
|------------------------------------------------------------|
|-5-4-3-2---5-4-3-2------------------------------------------|
|-5-4-3-2---5-4-3-2------------------------------------------|
|-3-2-1-0---3-2-1-0---33221100--33221100--33221100--33221100-|
|------------------------------------------------------------|
pm                    ........  ........  ........  ........

BRIDGE: (guitar 2)
|------------------------------------------------------------|
|------------------------------------------------------------|
|-5-4-3-2---5-4-3-2------------------------------------------|
|-5-4-3-2---5-4-3-2------------------------------------------|
|-3-2-1-0---3-2-1-0---33221100--33221100--77665544--77665544-|
|------------------------------------------------------------|
pm                    ........  ........  ........  ........

BRIDGE 2: (both guitars)
|----------------------|
|----------------------|
|-5-4-3-2---5-4-3-2----|
|-5-4-3-2---5-4-3-2--2-|
|-3-2-1-0---3-2-1-0--2-|
|--------------------0-|

CHORUS:
|------------------------------------------------------------------|
|------------------------------------------------------------------|
|------------------------------------------------------------------|
|-4------5------74-------------74---74---74-4-----5-4-5-7----8-|
|-2--0-2-3--5-4-52-------------52---52---52-2-0-2-3-2-3-5----6-|
|-----------3-2-----0-0-0-0-0-0-----0-----0------------------------|
pm   . .            . . . . . .     .     .       . .

INTERLUDE:
|----------------------------------------------------------|
|----------------------------------------------------------|
|-6/7---6/7---6/7--------------6/7---6/7---6/7-------------|
|-4/5---4/5---4/5--------------4/5---4/5---4/5-----7p6-7p6-|
|---------------------5p4-5p4------------------------------|
|-----0-----0-----0-0--------------0-----0-----0-0---------|
pm    .     .     . .              .     .     . .

SOLO BACKGROUND:
|---------------------------------------------------------------|
|---------------------------------------------------------------|
|---------------------------------------------------------------|
|---------------------------------------------------------------|
|---------------------------------------------------------------|
|-000-1p0-0-0-0-0-2p0-0-7p0-0-6-000-1p0-0-0-0-0-0-0-0-0-0-0-0-0-|
pm...     . . . .     .     .   ...     . . . . . . . . . . . .

SOLO BACKGROUND 2:
|------------|
|------------|
|-5--4--3--2-|
|-5--4--3--2-|
|-3--2--1--0-|
|------------|

OUTRO:
|----------------------------------|
|----------------------------------|
|----------------------------------|
|--------------------------------2-|
|--------------------------------2-|
|-0-0-1p0-0-0-0-0-2p0-0-7p0-0-6--0-|
pm. .     . . . .     .     .

Добавлено: 19.04.2012
Другие материалы по этой песне:
  • Аккорды и текст

Страница создана 19.04.2012
http://primanota.ru/deliverance/weapons-of-our-warfare-chords.htm
Привет, Гость.
Предлагаем пройти революционный курс по гитаре.
Подарок от PrimaNota.Ru, забирай!