PrimaNota.ru - самый крупный в мире бесплатный архив песенных текстов, аккордов, табулатур и нот


Deliverance - The Call - текст песни, таба, видео

Регистрация Запомнить меня
Войти через:  Facebook Google Twitter Vk Yandex Mail.ru

Deliverance - The Call - текст песни, таба, видео

Печатать
Просмотров: 98
		   The Call
Deliverance
From the Albums Deliverance and Intense Live Series Vol.1
1989 Broken Songs
Intense Records


If you have seen any of my other tabs you know I do them all on an 
acoustic guitar, and this is no exception. Tune your guitars to E flat. 
Also, I have the live version that doesn't have the words, so if you 
know them hook me up! I KINDA figured them out, but as you can see there 
are some parts that I need some help on.
 
Intro
|------|--------------|------------------|-----------------|
|------|--------------|------------------|-----------------|
|------|--------------|------------------|-----------------|
|-4--4-|-4--4--2--4/5-|-4-2-2-4--4-4-4-4-|-4--4-4-4--2-4/5-|
|-4--4-|-4--4--2--4/5-|-4-2-2-4--4-4-4-4-|-4--4-4-4--2-4/5-|
|-2--2-|-2--2--0--2/3-|-2-0-0-2--2-2-2-2-|-2--2-2-2--0-2/3-|

                      |-------|----------|----------------|
                      |-------|----------|----------------|
                      |-------|----------|----------------|
Guitar Two enters here|--4-4--|----------|----------------|
                      |--4-4--|----------|----------------|
                      |--2-2--|----------|~~~~~~~~~~~~~~~~|

Riff A
|--------------------|-------------------|
|--------------------|-------------------|
|--------------------|-------------------|x4
|--4-2-2-4--4-4-4-4--|--4--4-4-4--2-4/5--|
|--4-2-2-4--4-4-4-4--|--4--4-4-4--2-4/5--|
|--2-0-0-2--2-2-2-2--|--2--2-2-2--0-2/3--|

Here is a part I don't know.


Riff A
|--------------------|-------------------|
|--------------------|-------------------|
|--------------------|-------------------|x2
|--4-2-2-4--4-4-4-4--|--4--4-4-4--2-4/5--|
|--4-2-2-4--4-4-4-4--|--4--4-4-4--2-4/5--|
|--2-0-0-2--2-2-2-2--|--2--2-2-2--0-2/3--|

Other Part A
|-----|---------|-----|---------|-----|-------|
|-----|---------|-----|---------|-----|-------|
|-----|---------|-----|---------|-----|-------|
|--4--|--2-4/5--|--4--|--2-4/5--|--4--|--7\5--|
|--4--|--2-4/5--|--4--|--2-4/5--|--4--|--7\5--|
|--2--|--0-2/3--|--2--|--0-2/3--|--2--|--5\3--|

Riff A
|--------------------|-------------------|
|--------------------|-------------------|
|--------------------|-------------------|x4
|--4-2-2-4--4-4-4-4--|--4--4-4-4--2-4/5--|
|--4-2-2-4--4-4-4-4--|--4--4-4-4--2-4/5--|
|--2-0-0-2--2-2-2-2--|--2--2-2-2--0-2/3--|
I once was bound by satan
I had no friends
I was a preacher of blah 
Blah Blah Blah Blah

Riff B
|------------------|------------------|
|------------------|------------------|
|------------------|------------------|
|--5--5--22--2--3--|--7--7--44--4--5--|x2
|--5--5--22--2--3--|--7--7--44--4--5--|
|--3--3--00--0--1--|--5--5--22--2--3--|
            I heard him         Upward calling me
            My answer           To all

Riff A
|--------------------|-------------------|   |-----|-----|
|--------------------|-------------------|   |-----|-----|
|--------------------|-------------------|x2 |-----|-----|
|--4-2-2-4--4-4-4-4--|--4--4-4-4--2-4/5--|   |--4--|-5\3-|
|--4-2-2-4--4-4-4-4--|--4--4-4-4--2-4/5--|   |--4--|-5\3-|
|--2-0-0-2--2-2-2-2--|--2--2-2-2--0-2/3--|   |--2--|-5\3-|

Riff A
|--------------------|-------------------|
|--------------------|-------------------|
|--------------------|-------------------|x4
|--4-2-2-4--4-4-4-4--|--4--4-4-4--2-4/5--|
|--4-2-2-4--4-4-4-4--|--4--4-4-4--2-4/5--|
|--2-0-0-2--2-2-2-2--|--2--2-2-2--0-2/3--|
My thing thing thing
But when you heed the call
I know you want to reach out and touch him
But you can't mess up your whatever

Riff B
|------------------|------------------|
|------------------|------------------|
|------------------|------------------|
|--5--5--22--2--3--|--7--7--44--4--5--|x2
|--5--5--22--2--3--|--7--7--44--4--5--|
|--3--3--00--0--1--|--5--5--22--2--3--|
             C you hear him?      He's calling out to you!
             C you hear Jesus calling?    He's calling you!

Riff C x2   (Yeah Yeah!)
|---------|------------------|---------|------------------|
|---------|------------------|---------|------------------|
|---------|------------------|---------|------------------|
|-2--2-4--|-7-6-5-4--7-6-5-4-|-2--2-5--|-8-7-6-5--8-7-6-5-|
|-2--2-4--|-7-6-5-4--7-6-5-4-|-2--2-5--|-8-7-6-5--8-7-6-5-|
|-0--0-2--|-5-4-3-2--5-4-3-2-|-0--0-3--|-6-5-4-3--6-5-4-3-|

|---------|------------------|---------|------------------|
|---------|------------------|---------|------------------|
|---------|------------------|---------|------------------|
|-2--2-6--|-9-8-7-6--9-8-7-6-|-2--2-7--|10-9-8-7-10-9-8-7-|
|-2--2-6--|-9-8-7-6--9-8-7-6-|-2--2-7--|10-9-8-7-10-9-8-7-|
|-0--0-4--|-7-6-5-4--7-6-5-4-|-0--0-5--|-8-7-6-5--8-7-6-5-|

Riff A Version Two
|----------------------|------------------|
|----------------------|------------------|
|----------------------|------------------|
|-4-2-2-4--4-4-4--4-4--|--4--4-4-4--4-4/5-|x4
|-4-2-2-4--4-4-4--4-4--|--4--4-4-4--2-4/5-|
|-2-0-0-2--2-2-2--2-2--|--2--2-2-2--0-2/3-|

Other Part B
|---------|---------|---------|
|---------|---------|---------|
|--(w\)---|--(w\)---|--(w\)---|
|----2----|----2----|----2----|
|----2----|----2----|----2----|
|----0----|----0----|----0----|

Play this while he solos.
|----------------------------------------------|
|----------------------------------------------|
|----------------------------------------------|
|----------------------------------------------|
|------(          Just one time         )------| 
|0000000000000000000000000000000000000000000000|

|--------------|--------------|--------------|-----------|
|--------------|--------------|--------------|-----------|
|--------------|--------------|--------------|-----------|x4
|--------------|--------------|--------------|--------3--|
|--------------|--------------|--------------|--------3--| 
|-000111333111-|-000111333111-|-000111333111-|-000111-1--|

                                   |------------------|
                                   |------------------|
Fourth time instead of last measure|------------------|
                                   |-2-22--2-22--2222-|
                                   |-2-22--2-22--2222-| 
                                   |-0-00--0-00--0000-|

Riff C
|---------|------------------|---------|------------------|
|---------|------------------|---------|------------------|
|---------|------------------|---------|------------------|
|-2--2-4--|-7-6-5-4--7-6-5-4-|-2--2-5--|-8-7-6-5--8-7-6-5-|
|-2--2-4--|-7-6-5-4--7-6-5-4-|-2--2-5--|-8-7-6-5--8-7-6-5-|
|-0--0-2--|-5-4-3-2--5-4-3-2-|-0--0-3--|-6-5-4-3--6-5-4-3-|

|---------|------------------|---------|------------------|
|---------|------------------|---------|------------------|
|---------|------------------|---------|----^---^---^---^-|
|-2--2-6--|-9-8-7-6--9-8-7-6-|-2--2-7--|---12--12--12--12-|
|-2--2-6--|-9-8-7-6--9-8-7-6-|-2--2-7--|------------------|
|-0--0-4--|-7-6-5-4--7-6-5-4-|-0--0-5--|------------------|

Riff A Version Two
|----------------------|------------------|
|----------------------|------------------|
|----------------------|------------------|
|-4-2-2-4--4-4-4--4-4--|--4--4-4-4--4-4/5-|x14(!)
|-4-2-2-4--4-4-4--4-4--|--4--4-4-4--2-4/5-|
|-2-0-0-2--2-2-2--2-2--|--2--2-2-2--0-2/3-|

Now Jimmy does some weird stuff added to the above, and I don't know how 
to play it. It is hard to figure out because my version is live, but 
maybe I am just too lazy. Oh Well!

And then he goes back to it:

Riff A Version Two
|----------------------|------------------|
|----------------------|------------------|
|----------------------|------------------|
|-4-2-2-4--4-4-4--4-4--|--4--4-4-4--4-4/5-|x8
|-4-2-2-4--4-4-4--4-4--|--4--4-4-4--2-4/5-|
|-2-0-0-2--2-2-2--2-2--|--2--2-2-2--0-2/3-|

Other Part B Version Two
|---------|---------|---------|---------|
|---------|---------|---------|---------|
|--(w\)---|--(w\)---|--(w\)---|--(w\)---|
|----2----|----2----|----2----|----2----|
|----2----|----2----|----2----|----2----|
|----0----|----0----|----0----|----0----|

Riff D
|--------------------------|--------------------------|
|--------------------------|--------------------------|
|--------------------------|--------------------------|
|--9--9-9--9--9-9--9-9-10--|--9--9-9--9--9-9--9-9-----|
|--7--7-7--7--7-7--7-7--8--|--7--7-7--7--7-7--7-7--8--|
|--------------------------|-----------------------6--|

|--------------------------|---------------------|
|--------------------------|---------------------|
|--------------------------|---------------------|
|--9--9-9--9--9-9--9-9-10--|--9--9-9--9--9-9-----|
|--7--7-7--7--7-7--7-7--8--|--7--7-7--7--7-7--8--|
|--------------------------|------------------6--|

|--------------------------|-------------------------|
|--------------------------|-------------------------|
|--------------------------|-------------------------|
|--9--9-9--9--9-9--9-9-10--|--9--9-9--9--9-9-----9\--|
|--7--7-7--7--7-7--7-7--8--|--7--7-7--7--7-7--8--7\--|
|--------------------------|------------------6------|

There. Sorry I couldn't get figure out the solos, but you have to admit 
they are pretty tough (unless you're Kevin Usher). Visit my homepage at 
http://www.geocities.com/sunsetstrip/palms/8550/index.html
Thanks to "Cool Burn" for getting me to tab some more.
Comments or corrections or solos to conorlarkin@hotmail.com
1 Corinthians 1:25
God Bless You

James Donnelly
     
Добавлено: 13.09.2013
Другие материалы по этой песне:
  • Аккорды и текст

Страница создана 21.03.2012
http://primanota.ru/deliverance/the-call-chords.htm
Привет, Гость.
Предлагаем пройти революционный курс по гитаре.
Подарок от PrimaNota.Ru, забирай!