PrimaNota.ru - самый крупный в мире бесплатный архив песенных текстов, аккордов, табулатур и нот


Deliverance - Slay The Wicked - текст песни, таба, видео

Регистрация Запомнить меня
Войти через:  Facebook Google Twitter Vk Yandex Mail.ru

Deliverance - Slay The Wicked - текст песни, таба, видео

Печатать
Просмотров: 109
                                  DELIVERANCE

                                Slay the Wicked
                    from the album 'Weapons of Our Warfare'

|
|
|
|------2--------3--------5--------3-----2/3--------2--------3--------5--------3
|------2--------3--------5--------3-----2/3--------2--------3--------5--------3
|0--0--0--0--0--1--0--0--3--0--0--1--0--0/1--0--0--0--0--0--1--0--0--3--0--0--1

thats the main intro/chorus riff...

|
|
|
|-2--------------------5--4-----5--4-----5--4--2------------------
|-2--------------------5--4-----5--4-----5--4--2------------------
|-0--0--0--0--0--0--0--3--2--0--3--2--0--3--2--0--0--0--0--0--0--0

|
|
|-5--4-----5--4-----5--4--
|-5--4-----5--4-----5--4--  repeats a lot, duh
|-3--2--0--3--2--0--3--2--
|-------------------------

Thats kinda like the verse riff

|
|
|
|-4--------------------------------------------
|-4--------------------4--2--0-----4--2--0-----
|-2--2--2--2--2--2--2-----------4-----------4--

|
|
|-------------------------------2--2--
|-4--------------------2--------2--2--
|-4--------------------2--------0--0--
|-2--2--2--2--2--2--2--0--0--0--------

Thats the bridge part.... 'release the power..'  that part

Oh, and then there is the bit before the solo that goes...

|
|
|-5--5--------7--7----------------------------
|-5--5--------7--7--------7----7--5-----------
|-3--3--3--3--5--5--5--5--7----7--5--3--2--0--
|-------------------------5----5--3-----------

|
|
|-5--5--------7--7------------------------------------
|-5--5--------7--7------------------------------------
|-3--3--3--3--5--5--------7--------7--------7--------7
|-------------------------5--5--5--5--5--5--5--5--5--5

That part may be B-C-G-Gb, instead of C-D-A-G.. not sure, I cant remember
off hand!  during the solo the rhythm is really basic... just ride a G for a
while the do

|
|
|
|--3--2--0--------------------2--
|-----------3--2--0-----------2--  (this riff is also the outro...)
|--------------------3--2--0--0--

and then ride the E then once in a while it just does this:

|
|
|
|--5--4--3--2
|--5--4--3--2
|--3--2--1--0

Well, I know thats pretty sloppy, but it should give whoever wants to play it
a  good start!  If I can get access to mtools I can get some of my tab on my
files to post and I wouldnt have to redo it all *argh!*  Anyway I have lots of
Deliverance, Kings X, Whitecross, Redemption *grin*, Holy Soldier, Tempest,
X-Sinner.. and so on and so forth, if anyone wants something that I can play I
will gladly post it, providing I have time!

Scott
hunsscon@david.wheaton.edu

oh, and if you find some errors, feel free to bring them to my attention :)




     
Добавлено: 24.08.2013
Другие материалы по этой песне:
  • Аккорды и текст

Страница создана 20.03.2012
http://primanota.ru/deliverance/slay-the-wicked-chords.htm
Привет, Гость.
Предлагаем пройти революционный курс по гитаре.
Подарок от PrimaNota.Ru, забирай!