PrimaNota.ru - самый крупный в мире бесплатный архив песенных текстов, аккордов, табулатур и нот


Deliverance - River Disturbance - таба, видео

Регистрация Запомнить меня
Войти через:  Facebook Google Twitter Vk Yandex Mail.ru

Deliverance - River Disturbance - таба, видео

Печатать
Просмотров: 81
		   DELIVERANCE
                           River Disturbance

                 (c)copyright River Disturbance Music



This tuning is weird, but I think it goes something like :

E   =   Es
B   =   Bb
G   =   Ges
D   =   Des
A   =   As
E   =   Des

Intro and verses, clean sound
--------------------------------------|----------------------------0-----------
--------------------------------------|----------------------------5-----------
-------------0-----0------------------|----------------0-----------------------
-----0---3-------------2---3----------|-------0----3---------------------------
----------------3---------------------|--------------------3-------3-----------
-0------------------------------------|--0-------------------------------------


Here you kick the shred ON!
---------------
---------------
-8-8-8-8-------
-8-8-8-8-------
-6-6-6-6-------
---------------

Chorus
--------------------------------------|----------------------------------------
--------------------------------------|----------------------------------------
-7------------------------------------|-5--------------------------------/8----
-7------------------------------------|-5--------------------------------/8----
-5------------------------------------|-3--------------------------------/6----
--------------------------------------|----------------------------------------


--------------------------------------|----------------------------------------
--------------------------------------|----------------------------------------
-7------------------------------------|-5---------------------------/8-8-8-8---
-7------------------------------------|-5---------------------------/8-8-8-8---
-5------------------------------------|-3---------------------------/6-6-6-6---
--------------------------------------|----------------------------------------

After the second chorus play ----  until the bridge begin.
                             ----
                             --7-
                             --7-
                             --5-
                             ----

Bridge to solo

--------------------------------------|----------------------------------------
--------------------------------------|----------------------------------------
-7-7--7-7--7--7--7--7--5--------------|--7-7---7-7--7--7--7--7--5-5-5----------
-7-7--7-7--7--7--7--7--5--------------|--7-7---7-7--7--7--7--7--5-5-5----------
-5-5--5-5--5--5--5--5--5--------------|--5-5---5-5--5--5--5--5--3-3-3----------
--------------------------------------|----------------------------------------


And Solo
--------------------------------------|----------------------------------------
--------10----8------10(12)-10wwww----|--------10------------------------------
-----10----------10-------------------|-----10---------------------------------
-12-----------------------------------|--12--------play here something
fast----
--------------------------------------|----------------------------------------
--------------------------------------|----------------------------------------


--------------------------------------|----------------------------------------
--------------------------------------|----------------------------------------
-10-9-10------------12---10---9-------|-10-9-10-------------9--10-12-10-12-----
-------------8--10--------------------|--------------8--10---------------------
---------12---------------------------|----------12----------------------------
--------------------------------------|----------------------------------------



--------------------------------------|-17-----15-----14--------12-------------
-/15w--15--17-18-20(21)-(21)-(21)-(21)|---15-----13------12--------13----------
--------------------------------------|-----17-----15-------14-------12--------
--------------------------------------|----------------------------------------
--------------------------------------|----------------------------------15-15-
--------------------------------------|----------------------------------------


--------------------------------------|----------------------------------------
-------10----8-----10(12)--10---------|-------10-------------------------------
----10---------10---------------------|----10-----play here something
fast-----
-12-----------------------------------|-12-------------------------------------
--------------------------------------|----------------------------------------
--------------------------------------|----------------------------------------

I couldn't figure out the end of the solo, but improvise:)



mjk@jussi.aol-kurikka.fi


     
Добавлено: 11.11.2013
Другие материалы по этой песне:
  • Аккорды и текст

Страница создана 11.11.2013
http://primanota.ru/deliverance/river-disturbance-chords.htm
Привет, Гость.
Предлагаем пройти революционный курс по гитаре.
Подарок от PrimaNota.Ru, забирай!