PrimaNota.ru - самый крупный в мире бесплатный архив песенных текстов, аккордов, табулатур и нот


Deliverance - No Time - текст песни, таба, видео

Регистрация Запомнить меня
Войти через:  Facebook Google Twitter Vk Yandex Mail.ru

Deliverance - No Time - текст песни, таба, видео

Печатать
Просмотров: 157
Song:No Time
  Band:Deliverance
  CD:Deliverance
  Copyright:c
  Tabbed by Ed Morones
    -Play tab in sequence unless otherise noted-
    -Tune down 1/2 step-

    INTRO:
    RIFF 1
  e----------------------------------------------------------------|
  B--------------------------------------------------------------0-|
  G----------------------------------------------------------------|
  D-----7h9----5h7----4-5--4h5p4-------7h9----5h7----4-5--4h5p4----|
  A--p.m.---p.m.---p.m.-----------5~-p.m.---p.m.---p.m.----------5-|
  E--00-----00-----00----------------00-----00-----00--------------|

  e----------------------------------------------------------------|
  B----------------------------------------------------------------|
  G----------------------------------------------------------------|
  D-----7h9----5h7----4-5--4h5p4-------7h9----5h7----4h5--4h5-4----|
  A--p.m.---p.m.---p.m.-----------5~-p.m.---p.m.---p.m.----------5-|
  E--00-----00-----00----------------00-----00-----00--------------|


    RIFF 2-play 2x's
  e----------------------------------------------------------------|
  B----------------------------------------------------------------|
  G-----7h9----5h7----4-5--4h5p4-------7h9----5h7----4h5--4h5-4----|
  D--p.m.---p.m.---p.m.-----------5~-p.m.---p.m.---p.m.------------|
  A----------------------------------------------------------------|
  E--00-----00-----00----------------00-----00-----00--------------|

                          VERSE:
                           RIFF 3-Play 4x's
  e------0---------------|-------------------------------------|
  B------0---------------|-------------------------------------|
  G------0---------------|-------------------------------------|
  D--2-----long pick sl.-|-------------------------------------|
  A--2-----\\\\\\\\\\\\\-|---------3\5------3\5-3\5--------3\5-|
  E--0-----\\\\\\\\\\\\\-|-0000-00-1\3-0000-1\3-1\3-0000-001\3-|


                     CHORUS:
                      RIFF 4
  e----------------|-------0---------------------0----------------|
  B----------------|-------0---------------------0----------------|
  G----------------|-------0---------------------0----------------|
  D------sl-----sl-|--2------------5-7-4~~~-2------------9-7~~~---|
  A-----3\5----3\5-|--2--------7~~~---------2--------7~~~------7\-|
  E--00-1\3-00-1\3-|--0---------------------0---------------------|




    -Play RIFF 3 6x's for VERSE-
    -Play RIFF 4 for CHORUS-
    -Solo section play RIFF 3 with ryhtym variations on the E string-


    BRIDGE:
     RIFF 5 play 10x's
  e------------------------------------------------|
  B------------------------------------------------|
  G------------------------------------------------|
  D------------------------------------------------|
  A--------------------------------3p0-3p0---------|
  E--+++++++++++++++++++-0000-0000---------3p0-3p0-|
     -Play CHORUS RIFF 4-
     -Play RIFF 1 4 x's


  Any Q's or com's email Ed at
  5150rocker@sbcglobal.net
Добавлено: 19.03.2012
Другие материалы по этой песне:
  • Аккорды и текст

Страница создана 19.03.2012
http://primanota.ru/deliverance/no-time-chords.htm
Привет, Гость.
Предлагаем пройти революционный курс по гитаре.
Подарок от PrimaNota.Ru, забирай!