PrimaNota.ru - самый крупный в мире бесплатный архив песенных текстов, аккордов, табулатур и нот


Deliverance - If You Will - текст песни, таба, видео

Регистрация Запомнить меня
Войти через:  Facebook Google Twitter Vk Yandex Mail.ru

Deliverance - If You Will - текст песни, таба, видео

Печатать
Просмотров: 125
		   If You Will
by: Deliverance
Tabs for: "If you will" by, Deliverance
Tab by Al Means, ALnGUITAR@aol.com 



Drums provide intro(the two notes during the drum solo are E5 and E5)
0.06 
    E5       F5       D5        G5    F5   E5F5 E5   E5 F5 E5 F5
||---------|---------|---------|----------|----------|-----------||
||---------|---------|---------|----------|----------|-----------||
||*--------|---------|---------|----------|----------|----------*||
||*/9------|/10------|\7-------|/12---10--|9-10-9----|9-10-9-10-*||
||-/7------|/8-------|\5-------|/10---8---|7-8--7----|7-8--7-8---||
||---------|---------|---------|----------|----------|-----------||


0.12 
Second time play this over the above riff
||---------|---------|---------|----------|----------|-----------||
||---------|---------|---------|----------|----------|-----------||
||---------|---------|---------|----------|----------|-----------||
||---------|---------|---------|----------|----------|-----------||
||11-------|/12------|\9-------|/14---12--|11-12-11--|11-12-11-12||
||---------|---------|---------|----------|----------|-----------||
                                           ^note:all note values are
                                                 the same as on top
0.20 
Play this with a triplet feel
  E5        F5        D5        G5   F5    E5F5 E5    E5 F5 E5 F5
||---------|---------|---------|----------|----------|-----------||
||---------|---------|---------|----------|----------|-----------||
||---------|---------|---------|----------|----------|-----------||
||9--------|10-------|7--------|12---10---|9-10-9----|9-10-9--10-||
||7-777-777|8-888-888|5-555-555|10---8----|7788877---|7788877-888||
||---------|---------|---------|----------|----------|-----------||


0.46 
Last time play this, instead the last two measures
||---------|--------|--------|----------|
||---------|--------|--------|----------|
||---------|--------|--------|----------|
||\2-3-2-3-|2-3-2-3-|2-3-2-3-|2---------|
||\2-3-2-3-|2-3-2-3-|2-3-2-3-|2---------|
||\0-1-0-1-|0-1-0-1-|0-1-0-1-|0---------|
PM............................letring.......


1.03 
verse riff:3X before vocals(during vocals speed up all low E notes)
||--------------------------------------------------------------||
||--------------------------------------------------------------||
||--------------------------------------------------------------||
||--------------------------------------------------------------||
||--------------------------------------------------------------||
||--------------------------------------------------------------||


verse1 starts at 1.30
    
    There is only the right and the wrong.
    There is no in between.
    The devil only blinds your eyes,
    and makes it all obscene.


chorus 1 starts at 1.39/1.40     
Добавлено: 21.06.2013
Другие материалы по этой песне:
  • Аккорды и текст

Страница создана 27.02.2012
http://primanota.ru/deliverance/if-you-will-chords.htm
Привет, Гость.
Предлагаем пройти революционный курс по гитаре.
Подарок от PrimaNota.Ru, забирай!