PrimaNota.ru - самый крупный в мире бесплатный архив песенных текстов, аккордов, табулатур и нот


Deliverance - Attack - текст песни, таба, видео

Регистрация Запомнить меня
Войти через:  Facebook Google Twitter Vk Yandex Mail.ru

Deliverance - Attack - текст песни, таба, видео

Печатать
Просмотров: 102
		   "ATTACK" by deliverance
First Appearance on "California Metal" A Regency Records sampler,(1987)
second appearance on the album: What A joke, Intense Records (1991)
Transcribed & tabbed by: Al Means ALnGUITAR@aol.com


"Drop D" tuning: D,A,D,G,B,E(low to high)


Intro:


riff1,
                                1,2,3                                        4
||-----------------------------------||---------------------------------------||
||-----------------------------------||---------------------------------------||
||*---------------------------------*||-------------------------------------7\||
||*----7---8-----7---8---7-----10--8*||-----7---8-----7---8---7-----10--8---7\||
||-----5---6-----5---6---5-----8---6-||-----5---6-----5---6---5-----8---6---5\||
||-0-0---0---0-0---0---0---0-0-------||-0-0---0---0-0---0---0---0-0-----------||
  pm...........................         ............................


Riff2, (With A triplet feel)
||-----------------------------------||
||-----------------------------------||
||*---------------------------------*||
||*-------------8--------------10--8*||
||--------------6--------------8---6-||
||0-000--000--00--0--000-000-00------||
pm..............  .............


Repeat Riff1


fill1
||----------------|------------------||
||----------------|------------------||
||----------------|------------------||
||0---------------|(0)---------------||
||0---------------|(0)---------------||
||0---------------|(0)---------------||
Lr........................


Verse:


Rythym figure 1:
                    1,3||                    2| |           4||
||---------------------||---------------------| |------------||
||---------------------||---------------------| |------------||
||---------------8---7*||---------------555/-7|2|-----888/-10||
||---------------8---7*||---------------555/-7|4|-----888/-10||
||---------------6---5-||---------------333/-5| |-----666/-8-||
||000000000000000------||000000000000000------| |00000-------||



Rythym figure 2:


||--------------------|---------------------||
||--------------------|---------------------||
||--------------------|---------------------||
||-0---------2--------|-3---------5---------||
||-0---------2--------|-3---------5---------||
||-0---------2--------|-3---------5---------||     
Добавлено: 27.11.2013
Другие материалы по этой песне:
  • Аккорды и текст

Страница создана 22.02.2012
http://primanota.ru/deliverance/attack-chords.htm
Привет, Гость.
Предлагаем пройти революционный курс по гитаре.
Подарок от PrimaNota.Ru, забирай!