PrimaNota.ru - самый крупный в мире бесплатный архив песенных текстов, аккордов, табулатур и нот


Deliverance - After Forever - текст песни, таба, видео

Регистрация Запомнить меня
Войти через:  Facebook Google Twitter Vk Yandex Mail.ru

Deliverance - After Forever - текст песни, таба, видео

Печатать
Просмотров: 116
		   After Forever
Performed by Deliverance
written by Black Sabbath
TAB by Carl Brown (The Devolutionist)  Cbrown@ciit.org

(Key of G)
The intro goes like this: (Organ plays G5  chord throughout intro)

Section I

|--------------------------------------------------|
|--------------------------------------------------|
|12--10--9--10--------------12--10--9--10----------|
|12--10--9--10--------------12--10--9--10----------| Play 3x
|10--8---7--8---7^8^7-8/10--10--8---7---8--7^8^7\5-|
|--------------------------------------------------|


|------------------------------------------------------------|
|------------------------------------------------------------|
|12--10--9--10--------------12--10--9--10----------7-7-7-7-7-|
|12--10--9--10--------------12--10--9--10----------7-7-7-7-7-|
|10--8---7--8---7^8^7-8/10--10--8---7---8--7^8^7\5-5-5-5-5-5-|
|------------------------------------------------------------|

Section II

"Have you ever thought about your soul,"

|------------------------------------|
|------------------------------------|
|5/7--7--7--7--7/10--10--10--10--10--|
|5/7--7--7--7--7/10--10--10--10--10--|
|3/5--5--5--5--5/8---8---8---8---8---|
|------------------------------------|


"can it be saved", etc.

|------------------------------------|
|------------------------------------|
|5/7--7--7--7---3--3--3--3--2--------|
|5/7--7--7--7---3--3--3--3--2--------|
|3/5--5--5--5---1--1--1--1--0--------|
|------------------------------------|

Repeat section II for verses, go back to section I, etc.

Section III

"Could you be afraid of what your friends might say..."

|----------------------------------------|
|----------------------------------------|
|10--10--10--10--10--8--8--8--8--10--10--|  Repeat
|10--10--10--10--10--8--8--8--6--10--10--|
|8---8---8---8---8---6--6--6-----8---8---|
|----------------------------------------|

|------------------------------------|
|------------------------------------|
|5--5--5--5--5--5--3--3--3--3--5--5--|
|5--5--5--5--5--5--3--3--3--1--5--5--|  Repeat # times,
|3--3--3--3--3--3--1--1--1-----3--5--|  goto section I/II
|------------------------------------|


Section IV  (Intro to solo part)

|----------------------------------|
|----------------------------------|
|----------------------------------|
|5--5--------------5--5------------| Repeat 2x
|5----3^4^3---3----5----3^4^3---3--|
|3----------6---6--3----------6----|

|--------------------------------------------------|
|-------------------------------------bend---------|
|-----------------------------------5-7^9^7^5------|
|7-------h-p--5--------7---h-p--5-7-----------7-5--|
|7------5^6^5---7-6-5--7--5^6^5--------------------|
|5--5-8----------------5---------------------------|


Go into solo over Am


Key:

h  Hammer on
^

p  Pick off
^

s  Slide up
/

s  Slide down
\

bend   Bend string up then down.
^ ^

Enjoy: the Master of Reality Rules...   Carl

-- 
Carl Brown  (cbrown@ciit.org)
Chemical Industry Institute of Toxicology
Research Triangle Park, NC


     
Добавлено: 21.10.2013
Другие материалы по этой песне:
  • Аккорды и текст

Страница создана 23.02.2012
http://primanota.ru/deliverance/after-forever-chords.htm
Привет, Гость.
Предлагаем пройти революционный курс по гитаре.
Подарок от PrimaNota.Ru, забирай!