PrimaNota.ru - самый крупный в мире бесплатный архив песенных текстов, аккордов, табулатур и нот


Delirious - Take Me Away - текст песни, таба, бас-таба, видео

Регистрация Запомнить меня
Войти через:  Facebook Google Twitter Vk Yandex Mail.ru

Delirious - Take Me Away - текст песни, таба, бас-таба, видео

Печатать
Просмотров: 227
Уроки эстрадного вокала в Санкт-Петербурге
----------------------------------------------------------------------------
                             Take Me Away - Delirious?
----------------------------------------------------------------------------
Tabbed by: leo v.
Email: rock1skatelv@hotmail.com

Tuning: normal/E A D G B e

   The song starts out wit piano this would be that piano part in guitar

e|-------------------------------------------------------------------------|
B|--------------12-14-17--10--9--------------------------------------------|
G|-------------------------------------------------------------------------|
D|-------------------------------------------------------------------------|
A|-------------------------------------------------------------------------|
E|-------------------------------------------------------------------------|

   But in real the song starts out with single light guitar strums and of course the piano

          C#m    B    A    G#     C#m     B     A  
e|---------9-----7----5----4-------9------7-----5--------------------------|
B|---------9-----7----5----4-------9------7-----5--------------------------|
G|---------9-----8----6----5-------9------8-----6--------------------------|
D|---------11----9----7----6-------11-----9-----7--------------------------|
A|---------11----9----7----6-------11-----9-----7--------------------------|
E|---------9-----7----5----4-------9------7-----5--------------------------|

   Verses:  
            C#m                  B                A                B
e|----9--9--9--9--9--9------7-7-7-7-7-7------5-5-5-5-5-5-----7-7-7-7-7-7-|
B|----9--9--9--9--9--9------7-7-7-7-7-7------5-5-5-5-5-5-----7-7-7-7-7-7-|
G|----9--9--9--9--9--9------8-8-8-8-8-8------6-6-6-6-6-6-----8-8-8-8-8-8-|x3
D|----11-11-11-11-11-11-----9-9-9-9-9-9------7-7-7-7-7-7-----9-9-9-9-9-9-|
A|----11-11-11-11-11-11-----9-9-9-9-9-9------7-7-7-7-7-7-----9-9-9-9-9-9-|
E|----9--9--9--9--9--9------7-7-7-7-7-7------5-5-5-5-5-5-----7-7-7-7-7-7-|

             C#m                 B                    A
e|----9--9--9--9--9--9------7-7-7-7-7-7------5-5-5-5-5-5-5-5-5-5-----------|
B|----9--9--9--9--9--9------7-7-7-7-7-7------5-5-5-5-5-5-5-5-5-5-----------|
G|----9--9--9--9--9--9------8-8-8-8-8-8------6-6-6-6-6-6-6-6-6-6-----------|
D|----11-11-11-11-11-11-----9-9-9-9-9-9------7-7-7-7-7-7-7-7-7-7-----------|
A|----11-11-11-11-11-11-----9-9-9-9-9-9------7-7-7-7-7-7-7-7-7-7-----------|
E|----9--9--9--9--9--9------7-7-7-7-7-7------5-5-5-5-5-5-5-5-5-5-----------|

   Chorus:
            C#m                 B               A               B
e|-----------------------------------------------------------------------|
B|-----------------------------------------------------------------------|
G|----9--9--9--9--9--9-----8-8-8-8-8-8-----6-6-6-6-6-6-----8-8-8-8-8-8---|x3
D|----11-11-11-11-11-11----9-9-9-9-9-9-----7-7-7-7-7-7-----9-9-9-9-9-9---|
A|----11-11-11-11-11-11----9-9-9-9-9-9-----7-7-7-7-7-7-----9-9-9-9-9-9---|
E|----9--9--9--9--9--9-----7-7-7-7-7-7-----5-5-5-5-5-5-----7-7-7-7-7-7---|

             C#m                 B                  A                 G#M
e|-------------------------------------------------------------------------|
B|-------------------------------------------------------------------------|
G|----9--9--9--9--9--9------8-8-8-8-8-8------6-6-6-6-6-6-6-6-------6-6-5---|
D|----11-11-11-11-11-11-----9-9-9-9-9-9------7-7-7-7-7-7-7-7-------7-7-6---|
A|----11-11-11-11-11-11-----9-9-9-9-9-9------7-7-7-7-7-7-7-7-------7-7-6---|
E|----9--9--9--9--9--9------7-7-7-7-7-7------5-5-5-5-5-5-5-5-------5-5-4---|

   then it goes back to verses and then the Chorus again and then its this little riff three times

e|-----------------------------------------------------------------------|
B|-----------------------------------------------------------------------|
G|-----------------------------------------------------------------------|x3
D|------------------------7-7-6------------------------------------------|
A|------------------------7-7-6------------------------------------------|
E|------------------------5-5-4------------------------------------------|

 And then its the solo
     Solo:

e|-------------------------------------------------------------------------|
B|---14b-14b-14b---12~---10~---9-9-9-9-9-9-9-9--10-10-10-10-10-10-10-10----|
G|-------------------------------------------------------------------------|
D|-------------------------------------------------------------------------|
A|-------------------------------------------------------------------------|
E|-------------------------------------------------------------------------|

e|-------------------------------------------------------------------------|
B|---14b-14b-14b---12~---10~---9-9-9-9-9-9-9-9---12-12-12-12-12-12-12-12---|
G|-------------------------------------------------------------------------|
D|-------------------------------------------------------------------------|
A|-------------------------------------------------------------------------|
E|-------------------------------------------------------------------------|

e|-------------------------------------------------------------------------|
B|---14b-14b-14b---12~---10~---9-9-9-9-9-9-9-9--10-10-10-10-10-10-10-10----|
G|-------------------------------------------------------------------------|
D|-------------------------------------------------------------------------|
A|-------------------------------------------------------------------------|
E|-------------------------------------------------------------------------|

e|-------------------------------------------------------------------------|
B|---14b-14b-14b---12~---10~---9-9-9-9-9-9-9-9-9-9-9-9---------------------|
G|-------------------------------------------------------------------------|
D|-------------------------------------------------------------------------|
A|-------------------------------------------------------------------------|
E|-------------------------------------------------------------------------|

       and then it goes to the chorus again and thats it

    enjoy god bless and e-mail me for any corrections if you can find one.

Добавлено: 16.05.2012
Другие материалы по этой песне:
  • Аккорды и текст

Страница создана 16.05.2012
http://primanota.ru/delirious/take-me-away-chords.htm
Привет, Гость.
Предлагаем пройти революционный курс по гитаре.
Подарок от PrimaNota.Ru, забирай!