PrimaNota.ru - самый крупный в мире бесплатный архив песенных текстов, аккордов, табулатур и нот


Delirious - Here I Am Send Me - текст песни, таба, видео

Регистрация Запомнить меня
Войти через:  Facebook Google Twitter Vk Yandex Mail.ru

Delirious - Here I Am Send Me - текст песни, таба, видео

Печатать
Просмотров: 193
----------------------------------------------------------------------------
		       HERE I AM SEND ME - DELIRIOUS
----------------------------------------------------------------------------
Tabbed by:ME LEO
Email:rock1skatelv@hotmail.com

Tuning:regular
 
  the song starts with this

e|-------------------------------------------------------------------------|
B|-------------------------------------------------------------------------|
G|----12-9-9-9-9-9-9-9-9-12--9-9-9-9-9-9-9-9-12-9-9-9-9-9-9-9-9------------|
D|-------------------------------------------------------------------------|
A|-------------------------------------------------------------------------|
E|-------------------------------------------------------------------------|


and thats like the whole song but if you wanna know the chords they are


                    G       Fm       Em      Fm
e|------------------3-------1--------0-------1-----------------------------|
B|------------------3-------1--------0-------1-----------------------------|
G|------------------4-------1--------0-------1-----------------------------|
D|------------------5-------3--------2-------3-----------------------------|
A|------------------5-------3--------2-------3-----------------------------|
E|------------------3-------1--------0-------1-----------------------------|


    and its the same though out the whole song


and the solo is
 
   Solo:

e|----6~---------------6~------------------6-8-------8/---14~--------------|
B|----8~---8-8-6-8--8--8~--8-8-8-6-8-8-6-8-----8-8-8----------12\--8-6-8-8-|
G|-------------------------------------------------------------------------|
D|-------------------------------------------------------------------------|
A|-------------------------------------------------------------------------|
E|-------------------------------------------------------------------------|

its something like that i couldnt make it out perfectly bu this what i got 

any questions comments or corrections e-mail me  and god bless






Добавлено: 28.07.2013
Другие материалы по этой песне:
  • Аккорды и текст

Страница создана 25.05.2012
http://primanota.ru/delirious/here-i-am-send-me-chords.htm
Привет, Гость.
Предлагаем пройти революционный курс по гитаре.
Подарок от PrimaNota.Ru, забирай!