PrimaNota.ru - самый крупный в мире бесплатный архив песенных текстов, аккордов, табулатур и нот


Delirious - Gods Romance Live - таба, видео

Регистрация Запомнить меня
Войти через:  Facebook Google Twitter Vk Yandex Mail.ru

Delirious - Gods Romance Live - таба, видео

Печатать
Просмотров: 96
Delirious (Live Touch Album)
Tabbed by: Jeff Ku


Gtr I (E A D G B E) - 'Untitled'

 4/4
  Gtr I
   
|-10-10-10-10-10-10-10-10-9-9--9-7------7-9-10---------------------7-9--10--9--5h7--------|
|-----------------------------------10----------10--10--10--10--10------------------10----|
|-----------------------------------------------------------------------------------------|
|-----------------------------------------------------------------------------------------|
|-----------------------------------------------------------------------------------------|
|-----------------------------------------------------------------------------------------|


                                   ~      ~~             ~~
  
|--------------------------------------9-12--9-12-9S14--12--9-7--9-8b10==9-12--|
|-------------------------------------10---------------------------------------|
|-9-11-11--9-11-11--9-11-11p9-9-11-9-------------------------------------------|
|------------------------------------------------------------------------------|
|------------------------------------------------------------------------------|
|------------------------------------------------------------------------------|


                                                                             ~~

|-8b10-9-5-7-------7----------------17-14-12-14-17-14-12-17-14-12-14-17h19--17----|
|-------------7-10---7-10-12-10-12------------------------------------------------|
|---------------------------------------------------------------------------------|
|---------------------------------------------------------------------------------|
|---------------------------------------------------------------------------------|
|---------------------------------------------------------------------------------|


     ~~
    
|---------|
|-9s10----|
|---------|
|---------|
|---------|
|---------|


Tablature Legend
----------------
 h   - hammer-on
 p   - pull-off
 b   - bend
 pb  - pre-bend
 r   - bend release (if no number after the r, then release immediately)
 /\  - slide into or out of (from/to "nowhere")
 s   - legato slide
 S   - shift slide
  - natural harmonic
[n]  - artificial harmonic
n(n) - tapped harmonic
 ~   - vibrato
 tr  - trill
 T   - tap
 TP  - trem. picking
 PM  - palm muting
\n/  - tremolo bar dip; n = amount to dip
 \n  - tremolo bar down
 n/  - tremolo bar up
/n\  - tremolo bar inverted dip
 =   - hold bend; also acts as connecting device for hammers/pulls
 <>  - volume swell (louder/softer)
 x   - on rhythm slash represents muted slash
 o   - on rhythm slash represents single note slash



Добавлено: 24.09.2013
Другие материалы по этой песне:
  • Аккорды и текст

Страница создана 24.09.2013
http://primanota.ru/delirious/gods-romance-live-chords.htm
Привет, Гость.
Предлагаем пройти революционный курс по гитаре.
Подарок от PrimaNota.Ru, забирай!