PrimaNota.ru - самый крупный в мире бесплатный архив песенных текстов, аккордов, табулатур и нот


Delicate Steve - Flyin High - таба, видео

Регистрация Запомнить меня
Войти через:  Facebook Google Twitter Vk Yandex Mail.ru

Delicate Steve - Flyin High - таба, видео

Печатать
Просмотров: 86
Уроки эстрадного вокала в Санкт-Петербурге
It's a start

Guitar 1 (Slapback Delay)

E|------------------------------------------------------------------------------------------------------|
B|--------------5-----------------------7-------------------------9-----------------------------10------|
G|-----------6-----6-----------------7-----7-------------------9-----9----------------------11------11--|
D|--------7-----------7-----------9-----------9------------11-----------11--------------12--------------|
A|-----7-----------------7-----9-----------------9-----11-------------------11------12------------------|
E|--5-----------------------7-----------------------9---------------------------10----------------------|

E|------------------------------------------|
B|--------------------------12--------------|
G|----------------------13------13----------|
D|--12--------------14--------------14------|
A|------12------14----------------------14--|
E|----------12------------------------------|


Guitar 2  (w/distortion)

E|-----------------------------------------------------------------------------------------------------|
B|----------------------------------------------14v-------------14h15p14-------------------------------|
G|-/14-----------/14-----------/14------14--16----------14--16------------16--14--------14/16--11--11--|
D|--------14--16--------14--16------16----------------------------------------------16-----------------|
A|-----------------------------------------------------------------------------------------------------|
E|-----------------------------------------------------------------------------------------------------|

Stave 2:

E|----------------------------------------------------|
B|---------------12/14--17--19--14v-------------------|
G|------11v----------------------------16--14---------|  Repeat Or
D|--14-----------------------------------------16-----|               
A|----------------------------------------------------|
E|----------------------------------------------------|

E|----------------------------|
B|----------------------------|
G|14--11\9--9\6--6\4--4\2--2--|
D|----------------------------|
A|----------------------------|
E|----------------------------|
Добавлено: 01.01.2016
Вам также может быть интересно:
Другие материалы по этой песне:
  • Аккорды и текст

Страница создана 01.01.2016
http://primanota.ru/delicate-steve/flyin-high-chords.htm
Привет, Гость.
Предлагаем пройти революционный курс по гитаре.
Подарок от PrimaNota.Ru, забирай!