PrimaNota.ru - самый крупный в мире бесплатный архив песенных текстов, аккордов, табулатур и нот


Delays - Lillian - текст песни, таба, перевод, видео

Регистрация Запомнить меня
Войти через:  Facebook Google Twitter Vk Yandex Mail.ru

Delays - Lillian - текст песни, таба, перевод, видео

Печатать
Просмотров: 155
----------------------------------------------------------------------------
                              lillian -  Delays
----------------------------------------------------------------------------
Tabbed by: acoustic-fish
Tuning: EADGBe (standard)

i couldnt find a tab for this song anywhere on the interet, so i decided to have a go... 
song on their new album, you see colours.
most of it is just chords without the high e string, but i tabbed out the song to 
make the strumming pattern clearer. timing is as accurate as i could get it.

there are a lot of synth effects on this song, which cover up the guitar a bit, but most 
it is clear. towards the end and during the chorus might be slightly wrong, because i 
stuck to the same few chords... but it sounds ok when i play it on my acoustic.

intro:
 e|-----------------|-----------------|-----------------|-----------------|
 B|--1--------------|-----------------|--1--------------|-----------------|
 G|--2--------------|-----------------|--2--------------|---------2-0-----|
 D|--2--------------|-----------------|--2--------------|-------------2-0-|
 A|--0--------------|-----------------|--0--------------|-----------------|
 E|-----------------|-----------------|-----------------|-----------------|

 e|-----------------|-----------------|-----------------|-----------------|
 B|-1---1-1-1---1-1-|1--1---1--1-1-1--|-1---1-1-1---1-1-|1--1---1--1-1-1--|
 G|-2---2-2-2---2-2-|0--0---0--0-0-0--|-2---2-2-2---2-2-|0--0---0--0-0-0--|
 D|-2---2-2-3---3-3-|2--0---0--0-0-0--|-2---2-2-3---3-3-|2--0---0--0-0-0--|
 A|-0---0-0-3---3-3-|3--3---3--3-3-3--|-0---0-0-3---3-3-|3--3---3--3-3-3--|
 E|-----------------|-----------------|-----------------|-----------------|

 e|-----------------|-----------------|-----------------|-----------------|
 B|-1---1-1-1---1-1-|1--1---1--1-1-1--|-1---1-1-1---1-1-|1--1---1--1-1-1--|
 G|-2---2-2-2---2-2-|0--0---0--0-0-0--|-2---2-2-2---2-2-|0--0---0--0-0-0--|
 D|-2---2-2-3---3-3-|2--0---0--0-0-0--|-2---2-2-3---3-3-|2--0---0--0-0-0--|
 A|-0---0-0-3---3-3-|3--3---3--3-3-3--|-0---0-0-3---3-3-|3--3---3--3-3-3--|
 E|-----------------|-----------------|-----------------|-----------------|


verse one:
 e|-----------------|-----------------|-----------------|-----------------|
 B|--1--------1-----|--1--------1-1-1-|--1--------1-----|--1--------1-1-1-|
 G|--2--------2-----|--0--------0-0-0-|--2--------2-----|--0--------0-0-0-|
 D|--2--------3-----|--0--------0-0-0-|--2--------3-----|--0--------0-0-0-|
 A|--0--------3-----|--3--------3-3-3-|--0--------3-----|--3--------3-3-3-|
 E|-----------------|-----------------|-----------------|-----------------|
       she   is   deafeningly pretty           echoes  are everywhere

 e|-----------------|-----------------|-----------------|-----------------|
 B|--1--------1-----|--1--------1-1-1-|---1------1------|-1-1-1-1-1-1-1-1-|
 G|--2--------2-----|--0--------0-0-0-|---2------0------|-2-2-2-2-2-2-2-2-|
 D|--2--------3-----|--0--------0-0-0-|---2------2------|-3-3-3-3-3-3-3-3-|
 A|--0--------3-----|--3--------3-3-3-|---0------3------|-3-3-3-3-3-3-3-3-|
 E|-----------------|-----------------|-----------------|-----------------|
       so i  drink to gain her pity          but she dont care


chorus:
 e|-----------------|----3-3----------|-----------------|----3-3----------|
 B|--1--1-1-1--1-1--|-1--3-3-1-1--1-1-|--1--1-1-1--1-1--|-1--3-3-1-1--1-1-|
 G|--2--2-2-0--0-0--|-2--0-0-2-2--2-2-|--2--2-2-0--0-0--|-2--0-0-2-2--2-2-|
 D|--2--2-2-2--2-2--|-3--0-0-3-3--2-2-|--2--2-2-2--2-2--|-3--0-0-3-3--2-2-|
 A|--0--0-0-3--3-3--|-3------3-3--0-0-|--0--0-0-3--3-3--|-3------3-3--0-0-|
 E|-----------------|-----------------|-----------------|-----------------|

 e|-----------------|----3-3----------|-----------------|-----------------|
 B|--1--1-1-1--1-1--|-1--3-3-1-1--1-1-|-1------1------1-|--1-1-1-1-1-1-1--|
 G|--2--2-2-0--0-0--|-2--0-0-2-2--2-2-|-0------2------2-|--2-2-2-2-2-2-2--|
 D|--2--2-2-2--2-2--|-3--0-0-3-3--2-2-|-2------2------3-|--3-3-3-3-3-3-3--|
 A|--0--0-0-3--3-3--|-3------3-3--0-0-|-3------0------3-|--3-3-3-3-3-3-3--|
 E|-----------------|-----------------|-----------------|-----------------|
                                          i....lilly..never alone

 e|-----------------|-----------------|-----------------|-----------------|
 B|-1---1-1-1---1-1-|--1--1----1--1---|-1---1-1-1---1-1-|--1--1----1--1---|
 G|-2---2-2-2---2-2-|--0--0----0--0---|-2---2-2-2---2-2-|--0--0----0--0---|
 D|-2---2-2-3---3-3-|--2--0----2--0---|-2---2-2-3---3-3-|--2--0----2--0---|
 A|-0---0-0-3---3-3-|--3--3----3--3---|-0---0-0-3---3-3-|--3--3----3--3---|
 E|-----------------|-----------------|-----------------|-----------------|
                               never alone

verse two:
 e|-----------------|-----------------|-----------------|-----------------|
 B|--1--------1-----|--1--------1-1-1-|--1--------1-----|--1--------1-1-1-|
 G|--2--------2-----|--0--------0-0-0-|--2--------2-----|--0--------0-0-0-|
 D|--2--------3-----|--0--------0-0-0-|--2--------3-----|--0--------0-0-0-|
 A|--0--------3-----|--3--------3-3-3-|--0--------3-----|--3--------3-3-3-|
 E|-----------------|-----------------|-----------------|-----------------|
  oh in my    dreams i fail.....why      you can not come  home...me i

 e|-----------------|-----------------|-----------------|-----------------|
 B|--1--------1-----|--1--------1-1-1-|---1------1------|-1-1-1-1-1-1-1-1-|
 G|--2--------2-----|--0--------0-0-0-|---2------0------|-2-2-2-2-2-2-2-2-|
 D|--2--------3-----|--0--------0-0-0-|---2------2------|-3-3-3-3-3-3-3-3-|
 A|--0--------3-----|--3--------3-3-3-|---0------3------|-3-3-3-3-3-3-3-3-|
 E|-----------------|-----------------|-----------------|-----------------|
 play      lay...   ...play     i could   touch..shimmy away


chorus two:
 e|-----------------|----3-3----------|-----------------|----3-3----------|
 B|--1--1-1-1--1-1--|-1--3-3-1-1--1-1-|--1--1-1-1--1-1--|-1--3-3-1-1--1-1-|
 G|--2--2-2-0--0-0--|-2--0-0-2-2--2-2-|--2--2-2-0--0-0--|-2--0-0-2-2--2-2-|
 D|--2--2-2-2--2-2--|-3--0-0-3-3--2-2-|--2--2-2-2--2-2--|-3--0-0-3-3--2-2-|
 A|--0--0-0-3--3-3--|-3------3-3--0-0-|--0--0-0-3--3-3--|-3------3-3--0-0-|
 E|-----------------|-----------------|-----------------|-----------------|

 e|-----------------|----3-3----------|-----------------|-----------------|
 B|--1--1-1-1--1-1--|-1--3-3-1-1--1-1-|-1------1------1-|--1-1-1-1-1-1-1--|
 G|--2--2-2-0--0-0--|-2--0-0-2-2--2-2-|-0------2------2-|--2-2-2-2-2-2-2--|
 D|--2--2-2-2--2-2--|-3--0-0-3-3--2-2-|-2------2------3-|--3-3-3-3-3-3-3--|
 A|--0--0-0-3--3-3--|-3------3-3--0-0-|-3------0------3-|--3-3-3-3-3-3-3--|
 E|-----------------|-----------------|-----------------|-----------------|
                                          i....lilly..never alone


interlude:
 e|-----------------|-----------------|-----------------|-----------------|
 B|-----------------|-----------------|-----------------|-----------------|
 G|-----------------|----------2-0----|-----------------|----------2-0----|
 D|------2-2----2-2-|----2h3p2-----2-2|------2-2----2-2-|----2h3p2-----2-2|
 A|---0------0------|-0---------------|---0------0------|-0---------------|
 E|-----------------|-----------------|-----------------|-----------------|
       i......lilly......alone             i......lilly......alone

 e|-----------------|-----------------|-----------------|-----------------|
 B|-----------------|-----------------|---1------1------|-1---------------|
 G|-----------------|----------2-0----|---2------0------|-2------2--0-----|
 D|------2-2----2-2-|----2h3p2-----2-2|---2------2------|-3----2----------|
 A|---0------0------|-0---------------|---0------3------|-3---------------|
 E|-----------------|-----------------|-----------------|-----------------|
       i......lilly......alone         never     oh       never

 e|-----------------|-----------------|-----------------|-----------------|
 B|--1-----1-----1--|-1-1-1-1-1-1-1-1-|-1---1-1-1---1-1-|-1---1-1---------|
 G|--2-----0-----2--|-2-2-2-2-2-2-2-2-|-2---2-2-0---0-0-|-2---2-2---------|
 D|--2-----2-----3--|-3-3-3-3-3-3-3-3-|-2---2-2-2---2-2-|-3---3-3-----0---|
 A|--0-----3-----3--|-3-3-3-3-3-3-3-3-|-0---0-0-3---3-3-|-3---3-3--3------|
 E|-----------------|-----------------|-----------------|-----------------|
     never  oh never                    alooooooooooooooooooooone

 e|-----------------|-----------------|-----------------|-----------------|
 B|-1---1-1-1---1-1-|-1---1-1---------|-1---1-1-1---1-1-|-1---1-1---------|
 G|-2---2-2-0---0-0-|-2---2-2---------|-2---2-2-0---0-0-|-2---2-2---------|
 D|-2---2-2-2---2-2-|-3---3-3-----0---|-2---2-2-2---2-2-|-3---3-3-----0---|
 A|-0---0-0-3---3-3-|-3---3-3--3------|-0---0-0-3---3-3-|-3---3-3--3------|
 E|-----------------|-----------------|-----------------|-----------------|
                                        alooooooooooooooooooooone

 e|-----------------|-----------------|
 B|--1--------1-----|-1-1-1-1-1-1-1-1-|
 G|--0--------2-----|-2-2-2-2-2-2-2-2-|
 D|--2--------2-----|-3-3-3-3-3-3-3-3-|
 A|--3--------0-----|-3-3-3-3-3-3-3-3-|
 E|-----------------|-----------------|
    any day  any way, any...   ...for

 e|-----------------|-----------------|-----------------|-----------------|
 B|--1--------------|-----------------|--1--------------|-----------------|
 G|--2--------------|-----------------|--2--------------|-----------------|
 D|--2--------------|-----------------|--2--------------|-----------------|
 A|--0--------------|-----------------|--0--------------|-----------------|
 E|-----------------|-----------------|-----------------|-----------------|
  ever?

verse three:
 e|-----------------|----3-3----------|-----------------|----3-3----------|
 B|--1--1-1-1--1-1--|-1--3-3-1-1--1-1-|--1--1-1-1--1-1--|-1--3-3-1-1--1-1-|
 G|--2--2-2-0--0-0--|-2--0-0-2-2--2-2-|--2--2-2-0--0-0--|-2--0-0-2-2--2-2-|
 D|--2--2-2-2--2-2--|-3--0-0-3-3--2-2-|--2--2-2-2--2-2--|-3--0-0-3-3--2-2-|
 A|--0--0-0-3--3-3--|-3------3-3--0-0-|--0--0-0-3--3-3--|-3------3-3--0-0-|
 E|-----------------|-----------------|-----------------|-----------------|
 oh in my dreams we make a scene  to     end all scenes......supreme

 e|-----------------|----3-3----------|-----------------|-----------------|
 B|--1--1-1-1--1-1--|-1--3-3-1-1--1-1-|-1--1-1-1--1-1-1-|--1-1-1-1-1-1-1--|
 G|--2--2-2-0--0-0--|-2--0-0-2-2--2-2-|-0--0-0-2--2-2-2-|--2-2-2-2-2-2-2--|
 D|--2--2-2-2--2-2--|-3--0-0-3-3--2-2-|-2--2-2-2--2-2-3-|--3-3-3-3-3-3-3--|
 A|--0--0-0-3--3-3--|-3------3-3--0-0-|-3--3-3-0--0-0-3-|--3-3-3-3-3-3-3--|
 E|-----------------|-----------------|-----------------|-----------------|
  i play,  lay,  scheme  and play       traces of you      travel with you


chorus:
 e|-----------------|----3-3----------|-----------------|----3-3----------|
 B|--1--1-1-1--1-1--|-1--3-3-1-1--1-1-|--1--1-1-1--1-1--|-1--3-3-1-1--1-1-|
 G|--2--2-2-0--0-0--|-2--0-0-2-2--2-2-|--2--2-2-0--0-0--|-2--0-0-2-2--2-2-|
 D|--2--2-2-2--2-2--|-3--0-0-3-3--2-2-|--2--2-2-2--2-2--|-3--0-0-3-3--2-2-|
 A|--0--0-0-3--3-3--|-3------3-3--0-0-|--0--0-0-3--3-3--|-3------3-3--0-0-|
 E|-----------------|-----------------|-----------------|-----------------|
tonight

 e|-----------------|----3-3----------|-----------------|-----------------|
 B|--1--1-1-1--1-1--|-1--3-3-1-1--1-1-|-1--1-1-1--1-1-1-|--1-1-1-1-1-1-1--|
 G|--2--2-2-0--0-0--|-2--0-0-2-2--2-2-|-0--0-0-2--2-2-2-|--2-2-2-2-2-2-2--|
 D|--2--2-2-2--2-2--|-3--0-0-3-3--2-2-|-2--2-2-2--2-2-3-|--3-3-3-3-3-3-3--|
 A|--0--0-0-3--3-3--|-3------3-3--0-0-|-3--3-3-0--0-0-3-|--3-3-3-3-3-3-3--|
 E|-----------------|-----------------|-----------------|-----------------|
                                          i....lilly..never alone

outro:
 e|-----------------|----3-3----------|-----------------|----3-3----------|
 B|--1--1-1-1--1-1--|-1--3-3-1-1--1-1-|--1--1-1-1--1-1--|-1--3-3-1-1--1-1-|
 G|--2--2-2-0--0-0--|-2--0-0-2-2--2-2-|--2--2-2-0--0-0--|-2--0-0-2-2--2-2-|
 D|--2--2-2-2--2-2--|-3--0-0-3-3--2-2-|--2--2-2-2--2-2--|-3--0-0-3-3--2-2-|
 A|--0--0-0-3--3-3--|-3------3-3--0-0-|--0--0-0-3--3-3--|-3------3-3--0-0-|
 E|-----------------|-----------------|-----------------|-----------------|

 e|-----------------|----3-3----------|-----------------|-----------------|
 B|--1--1-1-1--1-1--|-1--3-3-1-1--1-1-|-1------1------1-|-----------------|
 G|--2--2-2-0--0-0--|-2--0-0-2-2--2-2-|-0------2------2-|-----------------|
 D|--2--2-2-2--2-2--|-3--0-0-3-3--2-2-|-2------2------3-|-----------------|
 A|--0--0-0-3--3-3--|-3------3-3--0-0-|-3------0------3-|-----------------|
 E|-----------------|-----------------|-----------------|-----------------|
                                          i....lilly..never alooooooooone


full lyrics:
=========================================================
she is deafeningly pretty
echoes are everywhere
so I drink to gain her pity
but she don't care

i love you Lilly but you're never alone
never alone

oh in my dreams I fail to see
why you can not come home with me
i play, lay, scheme and play
i could touch you but you shimmy away

i love you Lilly but you're never alone

i love you Lilly but you're never alone
i love you Lilly but you're never alone
i love you Lilly but you're never alone
never, no never
never, oh never alone
alone

any day, any way, any day
what if I wait for ever?

oh, in my dreams we make a scene
to end all scenes with love supreme
i play, lay, scheme and play
traces of you travel with you tonight

i love you Lilly but you're never alone

i love you Lilly but you're never alone

=========================================================

the synth effects play during the intro, chorus, (except when the vocals go "i love you 
but youre never alone) and verses two and three
they buzz a lot, but this is the baisic tab for them if you have a second guitarrist to 
them:
 e|-----------------|-----------------|-----------------|-----------------|
 B|-----------------|-----------------|-----------------|-----------------|
 G|-----------------|-----------------|-----------------|-----------------|
 D|------2-2-----2-2|-----2-2-2-2-2-2-|------2-2-----2-2|-----2-2-2-2-2-2-|
 A|--0-------0------|-0---------------|--0-------0------|-0---------------|
 E|-----------------|-----------------|-----------------|-----------------|

=========================================================

hope this isnt too confusing. the chord changes might be difficult to read, but theres 
four different chords, so it should be easy enough.

enjoy!

| /  slide up
|   slide down
| h  hammer-on
| p  pull-off
| ~  vibrato
| +  harmonic
| x  Mute note
============================================================================
Добавлено: 23.06.2012
Другие материалы по этой песне:
  • Аккорды и текст

Страница создана 04.04.2012
http://primanota.ru/delays/lillian-chords.htm
Привет, Гость.
Предлагаем пройти революционный курс по гитаре.
Подарок от PrimaNota.Ru, забирай!