PrimaNota.ru - самый крупный в мире бесплатный архив песенных текстов, аккордов, табулатур и нот


Delays - Hooray - текст песни, бас-таба, видео

Регистрация Запомнить меня
Войти через:  Facebook Google Twitter Vk Yandex Mail.ru

Delays - Hooray - текст песни, бас-таба, видео

Печатать
Просмотров: 143
Tabbed By : Emmi
e-mail: emmivisser@gmail.com
Tuning: Standard
Tabbed from live acoustic version

Listen closely to song for correct rhythm

Intro/Chorus
G|----------------------------------------------------------------------|
D|---------3-3--------------------------------3-3-----------------------|
A|-4-4---6----6-64----------2-2------4-444--6-----6-64-----------3-344--|  2x
E|-----------------2-222-4-----4-42---------------------4-4--6-6--------|


Verse (sixteens/fifteens/thirteens/elevens)
G|----------------------------------------|
D|----------------------------------------|
A|--16161616-15151515-13131313-111111111--|  3x
E|----------------------------------------|

G|---------------------------------|
D|---------------------------------|
A|--16161616-15151515-13131313-11--|  1x
E|---------------------------------|


Bridge (oh you'll never believe…)
G|---------------------------------------------------|
D|---------------------------------------------------|
A|--99999999------9999999-8-9-11-131313131313131313--|
E|-----------11-9------------------------------------|

G|------------------------------------------|
D|------------10101010-1111-1010------------|
A|--13131313---------------------1313-1111--|
E|------------------------------------------|

G|-----------------------------------------|
D|-----------------------------------------|
A|--99999999------1111111111111111111111\--|
E|-----------11-9--------------------------|


End Notes
G|-----|
D|-----|
A|-6-9-|
E|-----|


| /  slide up
| \  slide down
| h  hammer-on
| p  pull-off
| ~  vibrato
| +  harmonic
| x  Mute note

Order shouldn't be a problem to figure out
Добавлено: 26.06.2012
Другие материалы по этой песне:
  • Аккорды и текст

Страница создана 26.06.2012
http://primanota.ru/delays/hooray-chords.htm
Привет, Гость.
Предлагаем пройти революционный курс по гитаре.
Подарок от PrimaNota.Ru, забирай!