PrimaNota.ru - самый крупный в мире бесплатный архив песенных текстов, аккордов, табулатур и нот


Del Vezeau - I Wander In Egypt - таба, видео

Регистрация Запомнить меня
Войти через:  Facebook Google Twitter Vk Yandex Mail.ru

Del Vezeau - I Wander In Egypt - таба, видео

Печатать
Просмотров: 91
Уроки эстрадного вокала в Санкт-Петербурге
Author/Artist: Del Vezeau
Title: I wander in Egypt
Album: Paradigm
Transcribed by: Del Vezeau
Email: delvezeau@hotmail.com                 http://mp3.com/guitar

You can download the track at my site: http://mp3.com/guitar
This time the author of the music is also the author ot the transcription. It

may  be freely printed for personal use or study but duplication for any

commercial use is strictly prohibited.

This track is perhaps the easiest one to tackle for guitar players intermediate

and upwards. Good luck and please drop an email with respect to your progress.


"I wander in Egypt" copyright 1999 by Del Vezeau


^ -Haromic
\ -Slide down
/ -Slide up
p -Pulloff
h -Hammer on

Standard Tuning

---0------------0-------------0------------0------------0----------3-3-3-3----|
-----0---1p0------0---1p0-------0---1p0------0---1p0------0--------5-5-5-5----|
------------------------------------------------------------------------------|
------------------------------------------------------------------------------|
------------------------------------------------------------------------------|
-0-----0------0-----0------0------0------0-----0------0-----0-0----------0----|


-\-2----2-2--0--0-----|-------------------------------------------------------|
-\-3----3-3--1--0-----|-------------------------------------------------------|
----------------------|-------------------------------------------------------|
----------------------|-------------------------------------------------------|
----------------------|-------------------------------------------------------|
-----0----------0-----|-------------------------------------------------------|


---0------------0-------------0------------0------------0----------3-3-3-3----|
-----0---1p0------0---1p0-------0---1p0------0---1p0------0--------5-5-5-5----|
------------------------------------------------------------------------------|
------------------------------------------------------------------------------|
------------------------------------------------------------------------------|
-0-----0------0-----0------0------0------0-----0------0-----0-0----------0----|


-\-2----2-2--0--0--|------0--------------0--------------0-----------0---------|
-\-3----3-3--1--0--|--------0---1p0--------0----1p0-------0---1p0-----0--1p0--|
-------------------|----------------------------------------------------------|
-------------------|----------------------------------------------------------|
-------------------|----------------------------------------------------------|
-----0----------0--|---0------0-------0-------0------0------0-----0-----0-----|


---0---------5-5---5-\-3---3-3-/-5---5----5----------------5-h-7-p-5--4-h-5---|
-----0-------7-7---7-\-5---5-5-/-7---7----7-----0-h-5-h-7---------------------|
------------------------------------------------------------------------------|
------------------------------------------------------------------------------|
------------------------------------------------------------------------------|
-0-----0-0-------0-------0---------0----0-------0----------0------------------|


-p-4-p-0-----12^-------12^--------0-------------5-h-7-p-5-4-h-5-p-4-p-0-------|
-----------------12^-------12^-------0-h-5-h-7--------------------------------|
------------------------------------------------------------------------------|
------------------------------------------------------------------------------|
------------------------------------------------------------------------------|
----------0----------0---------0-----0----------0-----------------------------|


---12^--------12^------------------------------------0------------------0-----|
-------12^------------1-----1-/-6--5--------0----------0--------0---------0---|
------------------------0---------------------5-------------------5-----------|
----------------------------------------5---------5---------5---------5-------|
----------------------3---3---/-7--7--0---------0---------0---------0---------|
-0---------0------------------------------------------------------------------|


----------------------0--------------3p0--------------------------------------|
-1-----1-/-6-5--3-------3---3--1---------0------0-h-1----1------0h1---1-----1-|
---0--------------0--------------0---------0----0----------0------------0-----|
------------------------------------------------------------------------------|
-3---3---/-7-7--5---5-----5----3---3---------3--------0------0------0-----0---|
------------------------------------------------------------------------------|


------------------------------0----------------0-------------3-3---3-\-2------|
-1-----1-/-6-5-------0----------0-----0----------0-----------5-5---5-\-3------|
---0-------------------5----------------5-------------------------------------|
------------------5--------5--------5-------5---------------------------------|
-3---3---/-7-7--0--------0--------0-------0-----------------------------------|
---------------------------------------------------3-/-5--0------0-------0----|


-2-2-/-3---3-3-/-5----5-5-\-3-----3-3-\-2----2-2---------0--0-----0-----------|
-3-3-/-5---5-5-/-7----7-7-\-5-----5-5-\-3----3-3-/-1---1----0-------0---1p0---|
------------------------------------------------------------------------------|
------------------------------------------------------------------------------|
------------------------------------------------------------------------------|
---------0---------0-----------0-----------0---------0------0---0-----0-------|


----0---------------------------------------------0------------0--------------|
-----0---1p0---0h3h5p3h5p3h5p3p0--6h8p6-----6-------6----3-------3---3--------|
---------------------------------------h7-----7-------7----5-----------5------|
------------------------------------------------------------------------------|
------------------------------------------------------------------------------|
-0-----0-------0------------------0-------0-----0--------0---0-----0----------|


-0h3---3-0----0-----0--12--12p10h12p10---10--10h12-9----9h10p9-8----8------8--|
-0h5---5-0------0-----------------------------------------------------0-------|
------------------------------------------------------------------------------|
------------------------------------------------------------------------------|
------------------------------------------------------------------------------|
-0---0---0-0------0----0-0-------------0-----------0--0--------0--0-----0-----|


-8-h-12-p-8-7-h-11-p-7-5-h-8-p-5-3-h-6-p-3-2h3p2p0----0------0----------------|
-------------------------------------------0------------0--------1p0---5p0----|
------------------------------------------------------------------------------|
------------------------------------------------------------------------------|
------------------------------------------------------------------------------|
-0----------0----------0---------0---------0-------0------0----0-----0--------|


------------------8----7--5--3--2----2-----2------0---------------------------|
----8p0---10p0----10---9--7--5--3------3---3----1----1p0----0-----------------|
---------------------------------------------------------h2---2p0h2p0---------|
----------------------------------------------------------------------2/5-4---|
------------------------------------------------------------------------------|
-0------0------0-------0--0--0--0--0-----0----0-------------------------------|


------------------------------------------------------------------------------|
------------------------------------------------------------------------------|
------------------------------------------------------------------------------|
-----6------------------------------------------------------------------------|
-5/7--------------------------------------------------------------------------|
-------0----------------------------------------------------------------------|
Добавлено: 20.06.2012
Другие материалы по этой песне:
  • Аккорды и текст

Страница создана 20.06.2012
http://primanota.ru/del-vezeau/i-wander-in-egypt-chords.htm
Привет, Гость.
Предлагаем пройти революционный курс по гитаре.
Подарок от PrimaNota.Ru, забирай!