PrimaNota.ru - самый крупный в мире бесплатный архив песенных текстов, аккордов, табулатур и нот


Deja Voodoo - Auckland Girls - таба, видео

Регистрация Запомнить меня
Войти через:  Facebook Google Twitter Vk Yandex Mail.ru

Deja Voodoo - Auckland Girls - таба, видео

Печатать
Просмотров: 108
Deja Voodoo
Auckland Girls
Back In Brown


Wicked song from a primo kiwi band. Just use an average distortion pedal or amp gain on 
marshall.

Intro
|  ----------------------------------------------------------------------- |
|  ----------------------------------------------------------------------- |
|  --9---7-7--9-9----9---7-7--9-9---/--5-----5--4-4-4-4--5-5-5-5--6-6-6-6- |
|  --9---7-7--9-9----9---7-7--9-9---/--5-lr--5--4-4-4-4--5-5-5-5--6-6-6-6- |
|  --7---5-5--7-7----7---5-5--7-7---/--3-----3--2-2-2-2--3-3-3-3--4-4-4-4- |
|  ----------------------------------------------------------------------- |

|  ----------------------------------------------------------------------- |
|  ----------------------------------------------------------------------- |
|  --9---7-7--9-9----9---7-7--9-9---/--5-----5--4-4-4-4--5-5-5-5--6-6-6-6- |
|  --9---7-7--9-9----9---7-7--9-9---/--5-lr--5--4-4-4-4--5-5-5-5--6-6-6-6- |
|  --7---5-5--7-7----7---5-5--7-7---/--3-----3--2-2-2-2--3-3-3-3--4-4-4-4- |
|  ----------------------------------------------------------------------- |

Verse(“Some girls just don't need no makeup…”)
|  ----------------------------------------------------------------------- |
|  ----------------------------------------------------------------------- |
|  --9---7-7--9-9----9---7-7--9-9---/--5-----5--4-4-4-4--5-5-5-5--6-6-6-6- |
|  --9---7-7--9-9----9---7-7--9-9---/--5-lr--5--4-4-4-4--5-5-5-5--6-6-6-6- |
|  --7---5-5--7-7----7---5-5--7-7---/--3-----3--2-2-2-2--3-3-3-3--4-4-4-4- |
|  ----------------------------------------------------------------------- |

|  --------------------------------------------------------------------------- |
|  --------------------------------------------------------------------------- |
|  --7-7-----7-7-----7-7-----7-7--7-7---/--5-----5--4-4-4-4--5-5-5-5--6-6-6-6- |
|  --7-7-----7-7-----7-7-----7-7--7-7---/--5-lr--5--4-4-4-4--5-5-5-5--6-6-6-6- |
|  --5-5-----5-5-----5-5-----5-5--5-5---/--3-----3--2-2-2-2--3-3-3-3--4-4-4-4- |
|  --------------------------------------------------------------------------- |

Chorus(Use Palm muting for some)
|  
|
|  
 |
|  
|
|  
|
|  
|
|  
|

|  --------------------------------------------------5b--6b-6b-6b-6b---5b-3-1- |
|  --------------------------------------------3--5-5b--6b-6b-6b-6b---5b-3-1-- |
|  --9---7-7--9-9----9---7-7--9-9---5-----3--5-------------------------------- |
|  --9---7-7--9-9----9---7-7--9-9---5-lr-------------------------------------- |
|  --7---5-5--7-7----7---5-5--7-7---3----------------------------------------- |
|  --------------------------------------------------------------------------- |

Verse
|  --------------------------------------------------------------------------- |
|  --------------------------------------------------------------------------- |
|  --7-7-----7-7-----7-7-----7-7--7-7---/--5-----5--4-4-4-4--5-5-5-5--6-6-6-6- |
|  --7-7-----7-7-----7-7-----7-7--7-7---/--5-lr--5--4-4-4-4--5-5-5-5--6-6-6-6- |
|  --5-5-----5-5-----5-5-----5-5--5-5---/--3-----3--2-2-2-2--3-3-3-3--4-4-4-4- |
|  --------------------------------------------------------------------------- |

Chorus(Use Palm muting for some)
|  
|
|  
 |
|  
|
|  
|
|  
|
|  
|

Bridge(Clean Tone)
|  ------------------------------------------------------------------- |
|  ------------------------------------------------------------------- |
|  -------7-------7-------7--------7-------7-------7-------7--------7- |
|  ------------------------------------------------------------------- |
|  --5-5----5-5----5-5------5-5-----5-5----5-5-----5-5-----5-5-------- |
|  ------------------------------------------------------------------- |

|  ------------------------------------------------------------------- |
|  ------------------------------------------------------------------- |
|  -------7-------7-------7--------7-------7-------7-------7--------7- |
|  ------------------------------------------------------------------- |
|  --5-5----5-5----5-5------5-5-----5-5----5-5-----5-5-----5-5-------- |
|  ------------------------------------------------------------------- |

|  ------------------------------------------------------------------- |
|  ------------------------------------------------------------------- |
|  -------7-------7-------7--------7-------7-------7-------7--------7- |
|  ------------------------------------------------------------------- |
|  --5-5----5-5----5-5------5-5-----5-5----5-5-----5-5-----5-5-------- |
|  ------------------------------------------------------------------- |

|  ------------------------------------------------------------------- |
|  ------------------------------------------------------------------- |
|  -------7-------7-------7--------7-------7-------7-------7--------7- |
|  ------------------------------------------------------------------- |
|  --5-5----5-5----5-5------5-5-----5-5----5-5-----5-5-----5-5-------- |
|  ------------------------------------------------------------------- |

|  ------------------------------------------------------------------- |
|  ------------------------------------------------------------------- |
|  -------7-------7-------7--------7-------7-------7-------7--------7- |
|  ------------------------------------------------------------------- |
|  --5-5----5-5----5-5------5-5-----5-5----5-5-----5-5-----5-5-------- |
|  ------------------------------------------------------------------- |

|  ------------------------------------------------------------------- |
|  ------------------------------------------------------------------- |
|  -------7-------7-------7--------7-------7-------7-------7--------7- |
|  ------------------------------------------------------------------- |
|  --5-5----5-5----5-5------5-5-----5-5----5-5-----5-5-----5-5-------- |
|  ------------------------------------------------------------------- |

|  ---------------------------------------------------------- |
|  ---------------------------------------------------------- |
|  -5-5-5-5-5-5-5-5-5-5-5-5-5-------------------------------- |
|  -5-5-5-5-5-5-5-5-5-5-5-5-5--7-7-7-7-7-7-7-7-7-7-7-7------- |
|  -3-3-3-3-3-3-3-3-3-3-3-3-3--7-7-7-7-7-7-7-7-7-7-7-7------- |
|  ----------------------------------5-5-5-5-5-5-5-5-5-5-5-5- |

|  ----------------------------------------------------------------------- |
|  ----------------------------------------------------------------------- |
|  --9---7-7--9-9----9---7-7--9-9---/--5-----5--4-4-4-4--5-5-5-5--6-6-6-6- |
|  --9---7-7--9-9----9---7-7--9-9---/--5-lr--5--4-4-4-4--5-5-5-5--6-6-6-6- |
|  --7---5-5--7-7----7---5-5--7-7---/--3-----3--2-2-2-2--3-3-3-3--4-4-4-4- |
|  ----------------------------------------------------------------------- |

Theres a solo in here…….

Chorus
|  
|
|  
 |
|  
|
|  
|
|  
|
|  
|


Outro
|  -------------------------------- -- |
|  -------------------------------- -- |
|  --9---------------9------------ --- |
|  --9-lr------------9------------ --- |
|  --7---------------7------------ --- |
|  -------------------------------- -- |


Legend:
Lr-let ring
ho-hammer on
po-pull of
b-bend
x-dead note
h(#)-harmonic(hash means fret no.)
HB-HOLD bend( till you change fret)
f-feedback(by using or amp or high volume)


Neways, I hope the tab is decent, please rate it and if you like Kiwi Rock and Roll or
got some suggestions then email me on jamesdonaldson@hot-shot.com

cheers
Добавлено: 09.04.2012
Другие материалы по этой песне:
  • Аккорды и текст

Страница создана 09.04.2012
http://primanota.ru/deja-voodoo/auckland-girls-chords.htm
Привет, Гость.
Предлагаем пройти революционный курс по гитаре.
Подарок от PrimaNota.Ru, забирай!