PrimaNota.ru - самый крупный в мире бесплатный архив песенных текстов, аккордов, табулатур и нот


Deicide - When Heaven Burns - текст песни, таба, видео

Регистрация Запомнить меня
Войти через:  Facebook Google Twitter Vk Yandex Mail.ru

Deicide - When Heaven Burns - текст песни, таба, видео

Печатать
Просмотров: 201
Artist: Deicide
Song: When Heaven Burns
Album: Scars of the crucifix (Earache Records)
Track: 2 (on CD)
Year: 2004  
Tabbed by: Lester Klaassen
Nickname: cradleoffilth
Email: formulester@hotmail.com

I JUST LOVE THIS SONG !!!
IT'S EASY TO PLAY WHEN YOU KNOW THE SONG, BUT IT ROCKS !

e|----------------------------------|
B|----------------------------------|
G|----------------------------------|
D|-9"8"8"7"7"6"6"5"5"4"4"3"3"2"2"1"-|
A|-7"7"6"6"5"5"4"4"7"7"6"6"5"5"4"4"-|
E|----------------------------------|

e|-------------------------------------|
B|-------------------------------------|
G|-------------------------------------|
D|-555555555555-7788-444444444444-7788-|
A|-333333333333-5566-222222222222-5566-|
E|-------------------------------------|

e|----------------------------------|
B|----------------------------------|
G|----------------------------------|
D|----------------------------------|
A|-9"8"8"7"7"6"6"5"5"4"4"3"3"2"2"1"-|
E|-7"7"6"6"5"5"4"4"7"7"6"6"5"5"4"4"-|

e|-------------------------------------|
B|-------------------------------------|
G|-------------------------------------|
D|-------------------------------------|
A|-555555555555-7788-444444444444-7788-|
E|-333333333333-5566-222222222222-5566-|

e|-------------------------------------------------|
B|-------------------------------------------------|
G|-------------------------------------------------|
D|-------------------------------------------------|
A|-------5-----4-----5-5-5-2-----5---4---3-4-6-5-6-|
E|-0-0-0-3-0-0-2-0-0-3-3-3-0-0-0-3-0-2-0-1-2-4-3-4-|

e|-------------------------------------------------|
B|-------------------------------------------------|
G|-------------------------------------------------|
D|-------------------------------------------------|
A|-----555555-----4-----3-----2--------------------|
E|-0-3--------0-2---0-1---0-1---000000000000000000-|

e|-------------------------------------------------|
B|-------------------------------------------------|
G|-------------------------------------------------|
D|-----777777-----6-----5-----4--------------------|
A|---5-555555---4-4---3-3---3-2--------------------|
E|-0-3--------0-2---0-1---0-1---000000000000000000-|

e|----------------------------|--------------|--------------|
B|----------------------------|--------------|--------------|
G|----------------------------|--------------|--------------|
D|----------------------------|--------------|--------------|
A|-----222222-----2-----2-----|-111111111111-|-555555555555-|
E|-0-3--------0-3---0-3---0-3-|--------------|--------------|


e|----------------------------|--------------|---------------|
B|----------------------------|--------------|---------------|
G|----------------------------|--------------|---------------|
D|-----444444-----4-----4-----|-333333333333-|-7777777777777-|
A|---5----------5-----5-----5-|--------------|---------------|
E|-0----------0-----0-----0---|--------------|---------------|

e|-------------------------|
B|-------------------------|
G|-------------------------|
D|-----7-----6-----5-----4-|
A|-----5-----4-----3-----2-|
E|-0-3---0-2---0-1---0-1---|
Добавлено: 05.05.2012
Другие материалы по этой песне:

Страница создана 05.05.2012
http://primanota.ru/deicide/when-heaven-burns-chords.htm
Привет, Гость.
Предлагаем пройти революционный курс по гитаре.
Подарок от PrimaNota.Ru, забирай!