PrimaNota.ru - самый крупный в мире бесплатный архив песенных текстов, аккордов, табулатур и нот


Deicide - Slave To The Cross - текст песни, таба, видео

Регистрация Запомнить меня
Войти через:  Facebook Google Twitter Vk Yandex Mail.ru

Deicide - Slave To The Cross - текст песни, таба, видео

Печатать
Просмотров: 156
                      
   Deicide-"Slave To The Cross"
 from the album "Serpents Of The Light"                                     
         (Roadrunner 1997)   
          Tabbed by Fasa    

Notes:

Il P.M. è solo dispensabile sulle note che tenete necessarie eseguirlo.... 

h= hammer on
p= pull off

Guitar tunning: Eb

Questa è una delle canzoni dei Deicide che
mi piace un casino suonare, grazie ai
riff che sono veramente belli!!! La scrittura 
dovrebbe essere abbastanza corretta
perchè è una canzone semplice... Ah! Come
sempre, suonate i riff più veloci che
potete (ma tenendo bene presente il ritmo della canzone...) !!

Musica : Eric Hoffman, Glen Benton, 
Brian Hoffman e Steve Asheim     
Testo : Glen Benton

Intro (sotto l'assolo di Eric) :                                 
ripetere 2 volte
----------------------------------------------------
----------------------------------------------------
----------------------------------------------------
-5-5--7---3--2----5-5--7---3--2---22---1------------
-5-5--5---3--2----5-5--5---3--2---22---1------------
-3-3--5---1--0----3-3--5---1--0---------------------

Assolo Eric (ripetere 2 volte) :           
riptere 2 volte

-11h13h15p13p11--------------11h13h15p13p11-----------
------------------------------------------------------
------------------------------------------------------
------------------------------------------------------
------------------------------------------------------
------------------------------------------------------

Riff 1 (strofa: "Killing blood spilling for faith your god....")  
ripetere 3 volte :
---------------------------------------------
---------------------------------------------
---------------------------------------------
---------------------------------------------
2222222222-----------------------------------
------------------222222555555--3333333333---
continuation
-------------------------------------
-------------------------------------
-------------------------------------
-------------------------------------
-222-----------------------3333------
-------2222222225555-----------------


Riff 1 B (strofa: "Purefication consent to concede...") 
ripetere 2 volte :
----------------------------------
----------------------------------
----------------------------------
----------------------------------
----------------------------------
5555555555--0000022222—111111111--

continuazione :
 -------------------------------------------
--------------------------------------------
--------------------------------------------
-----------------------------------8--------
-----------------------------------8--------
5555-00000022222--6666-------------6--------
                                   *
*suonare l'accordo solo l'ultima volta


Ripetere Intro (ritornello: "Slave to the cross...") per 1 volta

Assolo di batteria 

Riff 2 (strofa: "Splitting masses indivision...")  
ripetere 2 volte

------------------------------------------
------------------------------------------
------------------------------------------
------------------------------------------
-5555-------------------------------------
-------555566661111-55551111555511111-----

Riff 2 B (strofa: "Unified throught religion 
Wreck this world whit heaven's wisdom..")

-------------------------------------
-------------------------------------
-------------------------------------
-------------------------------------
-55555555----------------------------
------------5555556666661111111------

continuazione :
--------------------------
--------------------------
--------------------------
--------------------------
--------------------------
--555551111115555511111---

Riff 3 A  ripetere 2 volte :
----------------------------------
----------------------------------
----------------------------------
----------------------------------
5555------5555--------555---------
-----5555-------5555--------------

continuazione :
------------------
------------------
------------------
------------------
------------------
-66666666666666---


Riff 3 B (strofa: "Reing of the cross, the aggressor...") 
ripetere 2 volte :
--------------------------------
--------------------------------
--------------------------------
--------------------------------
-2222-------2222-------222------
-------2222-------2222----------

continuazione :
------------------
------------------
------------------
------------------
------------------
-3333333333333333-


Riff 3 C (strofa: "Slave to the cross of deception...") 
ripetere 2 volte :
--------------------------
--------------------------
--------------------------
--------------------------
--------------------------
5555-0000-5555-0000-555---

continuazione :
---------------------------
---------------------------
---------------------------
---------------------------
---------------------------
-11111111111111111111------


Riff 4 (non sono sicuro di questo)     
ripetere 2 volte :  
--------------------------
--------------------------
--------------------------
---------------------7----
---------------------7----
2222222223333330000--5----

SLAVE TO THE CROSS!!           

continuazione :
------------------------
------------------------
------------------------
-------------------7----
-------------------7----
22222222333330000--5----

SLAVE TO THE CROSS!!

Assoli (not tabbed):

Sotto l’assolo di Eric 
ripetere Riff 1 per 3 volte

Sotto l’assolo di Brian 
ripetere Riff 1 B per 2 volte

Ripetere Riff Intro 
(“Slave To The Cross…”) per 1 volta

Assolo di batteria

Ripetere Riff 1 A 2 volte
Ripetere Riff 1 B 2 volte
Ripetere Riff 2 A (2 volte), 
B (2 volte), C (2 volte)
Ripetere Riff 4  2 volte

Finale:
-----------------------
-----------------------
-----------------------
-------------------7---
-------------------7---
222222233333330000-5---

continuazione  :
-----------------
-----------------
-----------3-----
-----------3-----
000000000--1-----

The End!


Lyrics :

Killing, the blood spilling for faith in your god
spreading the message defending his fraud 
murder unheard of until belief
rape of the willing is blessed by the priest
travel to new worlds enslaved under god
destroy their cultures then leave them rot
 
puefication, consent to concede
killing the ones who will never believe
annihilation, convert to the cross
civilization all under one god

        SLAVE TO THE CROSS
        SLAVE TO THE CROSS

Splitting masses indivision
genocidial inquisition
unified throught religion
wreck this world whit heaven's wisdom
reing of the cross, the aggressor
has killed more people than cancer
slave to the cross of deception
when will we stop his infection

SLAVE TO THE CROSS - SLAVE TO THE CROSS

              SLAVE TO THE CROSS
              SLAVE TO THE CROSS 

Terrify in to religion
rectify the church ambition
crucify who will not listen
wreck this world whit heaven's wisdom
reign of the cross, the aggressor
has killed more people than cancer
slave to the cross of deception
when will we stop his infection

SLAVE TO THE CROSS - SLAVE TO THE CROSS

 “Questo è tutto maniaci Satanici, ascoltate i Deicide fino alla morte!!"

   Fasa 85
JESUS ANAL PENETRATION
Добавлено: 21.02.2012
Другие материалы по этой песне:

Страница создана 21.02.2012
http://primanota.ru/deicide/slave-to-the-cross-chords.htm
Привет, Гость.
Предлагаем пройти революционный курс по гитаре.
Подарок от PrimaNota.Ru, забирай!