PrimaNota.ru - самый крупный в мире бесплатный архив песенных текстов, аккордов, табулатур и нот


Deicide - Imminent Doom - таба, видео

Регистрация Запомнить меня
Войти через:  Facebook Google Twitter Vk Yandex Mail.ru

Deicide - Imminent Doom - таба, видео

Печатать
Просмотров: 86
Band: Deicide
Album: In Torment, In Hell
Song: Imminent Doom


 
Code:
Suffixes for bend:
fb - full bend       hb - half bend
qb - quarter bend    t - tap bend
r - release bend

Suffixes for harmonic:
^ - pinched harmonic      n – natural harmonic

Suffixes for mute:
. – palm mute            x – staccato mute
, - light palm mute      ; - heavy palm mute

Other:
/ - slide up to            \ - slide down to       
h - hammer on              p - pull off
" - tremolo note           <> - Trill
* - see comment

Tuning D G C F A D

Riff 1 (0:00) play 4 times
|-------------------------------------------------------------|
|-------------------------------------------------------------|
|-------------------------------------------------------------|
|-------------------------------------------------------------|
|-4--5--3--4--------------------------------------------------|
|-2--3--1--2--0-0-0-1h4p1p0-0-0-0-1h4p1p0-0-0-0-1h4p1p0-0-0-0-|
              . . .         . . .         . . .         . . .

Fill 1 (0:17)
|-------------|
|-------------|
|-------------|
|-------------|
|-4--5--3--4--|
|-2--3--1--2--|

Riff 2 (0:19) play 6 times
|-------------------------------------------------------------|
|-------------------------------------------------------------|
|-------------------------------------------------------------|
|-------------------3h6p3p2-------3h6p3p2-------3h6p3p2-------|
|-4--5--3--4--------------------------------------------------|
|-2--3--1--2--0-0-0---------0-0-0---------0-0-0---------0-0-0-|
              . . .         . . .         . . .         . . .

Riff 3 (0:45) play 4 times
|-------------------------------------------------|
|-------------------------------------------------|
|-------8~----------------------------------------|
|-----------------8p7-------3h6p3p2---------------|
|-------------------------------------------------|
|-0-0-0-----0-0-0-----0-0-0---------0-0-0-1h4p1p0-|
  . . .     . . .     . . .         . . .

Riff 1 x 1 (0:57)
Fill 1 x 1 (1:14)
Riff 2 x 1 (1:15)
Riff 3 x 1 (1:41)

Under Solo:
Riff 4 (1:53) play 4 times
|--------------------------------------------|
|--------------------------------------------|
|--------------------------------------------|
|-10-9--------------------------------9--10--|
|-8--7--------2--3--------6--5--------7--8---|
|-------0-0-0-2--3--0-0-0-6--5--0-0-0--------|
        . . .       . . .       . . .

Solo is just a bunch of random whammy bar stuff
Riff 1 x 1 (2:08)
Fill 1 x 1 (2:25)
Riff 2 x 1 (2:26)
Riff 3 x 1 (2:52)
Riff 4 x 1 (3:04)
Riff 1 x 1 (3:18)
End (3:36)
Добавлено: 19.11.2013
Другие материалы по этой песне:

Страница создана 16.05.2012
http://primanota.ru/deicide/imminent-doom-chords.htm
Привет, Гость.
Предлагаем пройти революционный курс по гитаре.
Подарок от PrimaNota.Ru, забирай!