PrimaNota.ru - самый крупный в мире бесплатный архив песенных текстов, аккордов, табулатур и нот


Deichkind - Limit - таба, видео

Регистрация Запомнить меня
Войти через:  Facebook Google Twitter Vk Yandex Mail.ru

Deichkind - Limit - таба, видео

Печатать
Просмотров: 151
Уроки эстрадного вокала в Санкт-Петербурге
Tabbed by: VerkiII
Email:

Tuning: eb,Bb,Gb,Db,Ab,Eb

For the first guitar part, a pitch shifter should be usefull..
use it to play an octave lower than original

Intro

e|---------------------------------------------------------------------------|
B|---------------------------------------------------------------------------|
G|---------------------------------------------------------------------------|
D|-----6----------------6----------------6------------------6----------------|
A|-4-5---5-4--------4-5---5-4--------4-5---5-4----------4-5---5-4------------|
E|---------------------------------------------------------------------------|

e|------------9-9-9------------9-9-9------------99-9-9-------------999-9-----|
B|---------------------------------------------------------------------------|
G|---------------------------------------------------------------------------|
D|---------------------------------------------------------------------------|
A|---------------------------------------------------------------------------|
E|---------------------------------------------------------------------------|


    G#5                  E5                                               

e|---------------------------------------------------------------------------|
B|---------------------------------------------------------------------------|
G|---------------------------------------------------------------------------|
D|---6-------------------2---------------------------------------------------|
A|---6-------------------2---------------------------------------------------|
E|---4-------------------0---------------------------------------------------|

e|-----9-9-9--9--9-9-----------9-9---99--------------------------------------|
B|---------------------------------------------------------------------------|
G|---------------------------------------------------------------------------|
D|---------------------------------------------------------------------------|
A|---------------------------------------------------------------------------|
E|---------------------------------------------------------------------------|

Verses:



e|---------------------------------------------------------------------------|
B|---------------------------------------------------------------------------|
G|---------------------------------------------------------------------------|
D|-------6----------------------------------6--------------------------------|
A|---4-5---5-4---------4-5---5-4--------4-5---5-4---------4-5---5-4----------|
E|---------------------------------------------------------------------------|


e|--------------99-9-9-----------999-9------------99-9-9-------------999-9---|
B|---------------------------------------------------------------------------|
G|---------------------------------------------------------------------------|
D|---------------------------------------------------------------------------|
A|---------------------------------------------------------------------------|
E|---------------------------------------------------------------------------|


                                            G#5                E5
                                        
e|---------------------------------------------------------------------------|
B|---------------------------------------------------------------------------|
G|-------6-------------------------------------------------------------------|
D|---4-----5-4---------4-5-----5-4----------6------------------2-------------|
A|------------------------------------------6------------------2-------------|
E|------------------------------------------4------------------0-------------|

e|--------------99-9-9--------------999-9------9-9-9--9--9-9------9-9---99---|
B|---------------------------------------------------------------------------|
G|---------------------------------------------------------------------------|
D|---------------------------------------------------------------------------|
A|---------------------------------------------------------------------------|
E|---------------------------------------------------------------------------|


Chorus:

Same make up as the Verses, only this part is added

e|---------------------------------------------------------------------------|
B|---14-----13h14p13---------------------------------------------------------|
G|----------------------14--13------13---------------------------------------|
D|-------------------------------16-------16---15h16p15-----12--11-----------|
A|---------------------------------------------------------------------------|
E|---------------------------------------------------------------------------|

Enjoy!
Добавлено: 24.05.2012
Другие материалы по этой песне:

Страница создана 17.04.2012
http://primanota.ru/deichkind/limit-chords.htm
Привет, Гость.
Предлагаем пройти революционный курс по гитаре.
Подарок от PrimaNota.Ru, забирай!