PrimaNota.ru - самый крупный в мире бесплатный архив песенных текстов, аккордов, табулатур и нот


Deftones - Rx Queen - аккорды и текст, таба, бас-таба, видео

Регистрация Запомнить меня
Войти через:  Facebook Google Twitter Vk Yandex Mail.ru

Deftones - Rx Queen - аккорды и текст, таба, бас-таба, видео

Печатать
Просмотров: 257
Авторы: Deftones

Rx Queen
Deftones



Date: Wed, 27 Jun 2001 13:46:15 -0400
From: Andrew Morrison 
Subject: d/deftones/rx_queen.crd

Song: RX Queen
Artist: Deftones
Album: White Pony
Tabbed By Andy Morrison

Tune down by 4 frets

E  B  G  D  A  E
|  |  |  |  |  |
C  G  D# A# F  C


Verse riff

F--------------- |
C---0-2-2-2/82- |

Chorus One

D#----------- |
A#---2-4-2-7- |
F----2-4-2-7- |
C----0-2-0-5- |

Bridge
     u u u
C----3-3-3--- |
G----3-3-3--- |
D#---4-4-4--- |
A#---5-5-5-5- |
F----5-5-5-5- |
C----3-3-3-3- |

Chorus Part B
           u u u
C----------3-3-3--- |
G----------3-3-3--- |
D#---------4-4-4--- |
A#---2-4-2-5-5-5-5- |
F----2-4-2-5-5-5-5- |
C----0-2-0-3-3-3-3- |

Outro Riff

C---10-9- | repeat to
G-------- | fade.

Song Structure

| Verse Riff x4 | Chorus One x2 | Verse Riff x4 | Chorus One x4 |

|    Bridge     | Verse Riff x4 | Chorus One x3 | Chorus Part B |

| Outro Riff    |


Добавлено: 16.11.2013
Другие материалы по этой песне:

Страница создана 07.04.2012
http://primanota.ru/deftones/rx-queen-chords.htm
Привет, Гость.
Предлагаем пройти революционный курс по гитаре.
Подарок от PrimaNota.Ru, забирай!