PrimaNota.ru - самый крупный в мире бесплатный архив песенных текстов, аккордов, табулатур и нот


Deftones - One Weak - аккорды и текст, таба, бас-таба, видео

Регистрация Запомнить меня
Войти через:  Facebook Google Twitter Vk Yandex Mail.ru

Deftones - One Weak - аккорды и текст, таба, бас-таба, видео

Печатать
Просмотров: 254
Уроки эстрадного вокала в Санкт-Петербурге
Авторы музыки: Stephen Carpenter, Abe Cunningham, Chino Moreno, Chi Cheng
Авторы текста: Chino Moreno
One Weak
Deftones
		   t. See http://www..net/faq/ for more information.                     #
#-----------------------------------------------------------------------------#


Deftones
Adrenaline
One Weak

This is my first attempt at tabbing a song but I still thing this is
still right.
If you have anthing CONSTRUCTIVE to say e-mail me at
korn1155@geocities.com

drop tuned to D

After bass intro guitar begins with

(Riff 1)
|------------------------
|------------------------
|-x-x-4-x-x-4-x-x-4-x-x-5 Repeat 8x
|-x-x-4-x-x-4-x-x-4-x-x-5
|-x-x-4-x-x-4-x-x-4-x-x-5
|-x-x-4-x-x-4-x-x-4-x-x-5

(Riff 2)
     let ring
|------           -----  repeat 4x
|------           -----
|-x-x-4         x-x-5
|-x-x-4         x-x-5
|-x-x-4         x-x-5
|-x-x-4         x-x-5

Repeat (Riff 1) 3x

(Riff 3)
|-----------------------------------------------------------------------------
|------------------------------------------------------------------------------
|-11-11--6-6--2-2--2-2--2-2-2-2--5-5-5-5--4-4-4-4--7-7-7-7--5-5-5-5
|-11-11--6-6--2-2--2-2--2-2-2-2--5-5-5-5--4-4-4-4--7-7-7-7--5-5-5-5
|-11-11--6-6--2-2--2-2--2-2-2-2--5-5-5-5--4-4-4-4--7-7-7-7--5-5-5-5
|-11-11--6-6--2-2--2-2--2-2-2-2--5-5-5-5--4-4-4-4--7-7-7-7--5-5-5-5

(Riff 4)
|----------------------------------- repeat 8x
|-----------------------------------
|-0-4-4--0-4-4--0-4-4--0-4-0-5-5-5-5
|-0-4-4--0-4-4--0-4-4--0-4-0-5-5-5-5
|-0-4-4--0-4-4--0-4-4--0-4-0-5-5-5-5
|-0-4-4--0-4-4--0-4-4--0-4-0-5-5-5-5

then repeat (Riff3) 8x

last time end with just
|----------------
|----------------
|-11-11--6-6--2-2
|-11-11--6-6--2-2
|-11-11--6-6--2-2
|-11-11--6-6--2-2

then the riff at the end
(Riff 5)
|----------------------------------
|---------------------------------- repeat 12x
|-4-4-4--2-2-2--4-4-4--2-2-2--5-5-5
|-4-4-4--2-2-2--4-4-4--2-2-2--5-5-5
|-4-4-4--2-2-2--4-4-4--2-2-2--5-5-5
|-4-4-4--2-2-2--4-4-4--2-2-2--5-5-5

to end hold on the 5 and bend half step

thats it folks     
Добавлено: 09.08.2013
Другие материалы по этой песне:

Страница создана 24.02.2012
http://primanota.ru/deftones/one-weak-chords.htm
Привет, Гость.
Предлагаем пройти революционный курс по гитаре.
Подарок от PrimaNota.Ru, забирай!