PrimaNota.ru - самый крупный в мире бесплатный архив песенных текстов, аккордов, табулатур и нот


Deftones - Knife party tabs - таба, видео

Регистрация Запомнить меня
Войти через:  Facebook Google Twitter Vk Yandex Mail.ru

Deftones - Knife party tabs - таба, видео

Печатать
Просмотров: 101


Author: Brian Nunn (lostprophet1001@hotmail.com)
Title: Knife Party
Artist: Deftones
Tuning: CGCFAD ( like the entire White Pony Album)

Intro/Verse
listen for rhythm  
d------------------------------------------------
a------------------------------------------------
f---5--5--5--5--5--5-----------------------------
c---3--3--3--3--3--3/9-9-9h10p9------------------
g---3--3--3--3--3--3/7-7-7-----------------------
c---3--3--3--3--3--3/7-7-7-----------------------

Chorus

         
d-------------------------------------------- REPEAT 3 times
a-------------------------------------------- on the third end on 
f-10--10--10--10--10--10--10--10--9--9------- this
c-8---8---8---8---8---8---x---x---x--x-------------|-0-|
g-8---8---8---8---8---8---8---8---7--7-------------|-0-|
c-8---8---8---8---8---8----------------------------|-0-|

Bridge
repeat-9 times pick scrape after 5th time, after 9 play faster listen to cd to figure out 
d-----------------------------
a-----------------------------
f---------------10--------------
c-9-------------x---------------
g-7-------------8---------------
c-7-------------0---------------

structure:
intro/verse
chorus
verse
chorus
bridge
chorus

Добавлено: 05.11.2013
Другие материалы по этой песне:
  • Аккорды и текст

Страница создана 05.11.2013
http://primanota.ru/deftones/knife-party-tabs-chords.htm
Привет, Гость.
Предлагаем пройти революционный курс по гитаре.
Подарок от PrimaNota.Ru, забирай!