PrimaNota.ru - самый крупный в мире бесплатный архив песенных текстов, аккордов, табулатур и нот


Deftones - Gauze - текст песни, таба, видео

Регистрация Запомнить меня
Войти через:  Facebook Google Twitter Vk Yandex Mail.ru

Deftones - Gauze - текст песни, таба, видео

Печатать
Просмотров: 306
Авторы музыки: Deftones
Авторы текста: Chino Moreno
-------------------------------------------------------------------------------
                                                           GAUZE - Deftones
-------------------------------------------------------------------------------

THIS TAB IS TO BE USED AS A GUIDELINE AND IS IN NO WAY 100% ACCURATE

Tabbed by: desertscoldmoon
Tuning: E-B-E-A-D-G-B-E


E|---------------------------|
B|---------------------------|
G|---------------------------|
D|---------------------------|
A|---------------------------| x4
E|---------------------------|
B|-----------------------x-x-|
E|-0-0-0-1/3--0-0-0-1/3--x-x-|


E|----------------------------------------|
B|----------------------------------------|
G|-10-10-10-10-10-10----10-10-10-10-10-10-|
D|-9--9--9--9--9--9-----9--9--9--9--9--9--|
A|-7--7--7--7--7--7-----7--7--7--7--7--7--| x1
E|----------------------------------------|
B|----------------------------------------|
E|----------------------------------------|


E|-------------------------------------------------------------------------------|
B|-------------------------------------------------------------------------------|
G|-10-10-10-10-10-10----10-10-10-10-9-9-7----------------------------------------|
D|-9--9--9--9--9--9-----9--9--9--9--9-9-x----------------------------------------|
A|-7--7--7--7--7--7-----7--7--7--7--7-7-5----5-5-5-5-5-5----5-5-5-5-6-5----------| x1
E|-------------------------------------------5-5-5-5-5-5----5-5-5-5-----6-5------|
B|-------------------------------------------3-3-3-3-3-3----3-3-3-3---------6-5v-|
E|-------------------------------------------------------------------------------|


E|--------------------------------------------------------------------------|
B|--------------------------------------------------------------------------|
G|--------------------------------------------------------------------------|
D|--------------------------------------------------------------------------|
A|-7-7-7-7-7-7----7-7-7-7-6-5-----------5-5-5-5-5-5----5-5-5-5-6-5----------| x2
E|-7-7-7-7-7-7----7-7-7-7-----6-5-------5-5-5-5-5-5----5-5-5-5-----6-5------|
B|-5-5-5-5-5-5----5-5-5-5---------6-5v--3-3-3-3-3-3----3-3-3-3---------6-5v-|
E|--------------------------------------------------------------------------|


E|-------0----------0--------------------------------------|
B|-------0------------0------------------------------------|
G|---------------------------------------------------------|
D|-----------------------9-9-9-9--9-9--9-9-9-9-------------|
A|-3-3-3----3-3-7-7------9-9-9-9--9-9--9-9-9-9--x2---------| x1
E|-3-3-3----3-3-7-7------7-7-7-7--7-7--7-7-7-7-------------|
B|-1-1-1----1-1-5-5------7-7-7-7--7-7--7-7-7-7-------------|
E|-----------------------7-7-7-7--7-7--7-7-7-7------7/15\3-|


E|---------------------------|
B|---------------------------|
G|---------------------------|
D|---------------------------|
A|---------------------------| x4
E|---------------------------|
B|-----------------------x-x-|
E|-0-0-0-1/3--0-0-0-1/3--x-x-|


E|--------------------------------------------------------------------------|
B|--------------------------------------------------------------------------|
G|--------------------------------------------------------------------------|
D|--------------------------------------------------------------------------|
A|-7-7-7-7-7-7----7-7-7-7-6-5-----------5-5-5-5-5-5----5-5-5-5-6-5----------| x3
E|-7-7-7-7-7-7----7-7-7-7-----6-5-------5-5-5-5-5-5----5-5-5-5-----6-5------|
B|-5-5-5-5-5-5----5-5-5-5---------6-5v--3-3-3-3-3-3----3-3-3-3---------6-5v-|
E|--------------------------------------------------------------------------|


E|-------0----------0---------------------------------0----------0--------------------------|
B|-------0------------0-------------------------------0------------0------------------------|
G|------------------------------------------------------------------------------------------|
D|-----------------------9-9-9-9--9-9--9-9-9-9------------------------9-9-9-9--9------9---9-|
A|-3-3-3----3-3-7-7------9-9-9-9--9-9--9-9-9-9--3-3-3----3-3-7-7------9-9-9-9--9------9---9-| 
E|-3-3-3----3-3-7-7------7-7-7-7--7-7--7-7-7-7--3-3-3----3-3-7-7------7-7-7-7--7------7---7-|
B|-1-1-1----1-1-5-5------7-7-7-7--7-7--7-7-7-7--1-1-1----1-1-5-5------7-7-7-7--7-7-7--7-7-7-|
E|-----------------------7-7-7-7--7-7--7-7-7-7------------------------7-7-7-7--7-7-7--7-7-7-|
                                                                                 . .    .

E|-------0----------0--------------------------------------|
B|-------0------------0------------------------------------|
G|---------------------------------------------------------|
D|-----------------------9-9-9-9--9-9--9-9-9-9-------------|
A|-3-3-3----3-3-7-7------9-9-9-9--9-9--9-9-9-9-------------| x1
E|-3-3-3----3-3-7-7------7-7-7-7--7-7--7-7-7-7-------------|
B|-1-1-1----1-1-5-5------7-7-7-7--7-7--7-7-7-7-------------|
E|-----------------------7-7-7-7--7-7--7-7-7-7------7/15\3-|


E|---------------------------------------------------------|
B|---------------------------------------------------------|
G|---------------------------------------------------------|
D|---------------------------------------------------------|
A|----------------------------x4------------------------x4-|
E|---------------------------------------------------------|
B|-----------------------x-x-------------------------------|
E|-0-0-0-1/3--0-0-0-1/3--x-x------0-0-0-1/3--0-0-0-1/3-----|


E|----------------------------------------|
B|----------------------------------------|
G|-10-10-10-10-10-10----10-10-10-10-10-10-|
D|-9--9--9--9--9--9-----9--9--9--9--9--9--|
A|-7--7--7--7--7--7-----7--7--7--7--7--7--| x1
E|----------------------------------------|
B|----------------------------------------|
E|----------------------------------------|


E|-------------------------------------------------------------------------------|
B|-------------------------------------------------------------------------------|
G|-10-10-10-10-10-10----10-10-10-10-9-9-7----------------------------------------|
D|-9--9--9--9--9--9-----9--9--9--9--9-9-x----------------------------------------|
A|-7--7--7--7--7--7-----7--7--7--7--7-7-5----5-5-5-5-5-5----5-5-5-5-6-5----------| x1
E|-------------------------------------------5-5-5-5-5-5----5-5-5-5-----6-5------|
B|-------------------------------------------3-3-3-3-3-3----3-3-3-3---------6-5v-|
E|-------------------------------------------------------------------------------|


E|--------------------------------------------------------------------------|
B|--------------------------------------------------------------------------|
G|--------------------------------------------------------------------------|
D|--------------------------------------------------------------------------|
A|-7-7-7-7-7-7----7-7-7-7-6-5-----------5-5-5-5-5-5----5-5-5-5-6-5----------| x2
E|-7-7-7-7-7-7----7-7-7-7-----6-5-------5-5-5-5-5-5----5-5-5-5-----6-5------|
B|-5-5-5-5-5-5----5-5-5-5---------6-5v--3-3-3-3-3-3----3-3-3-3---------6-5v-|
E|--------------------------------------------------------------------------|


E|-------0----------0---------------------------------0----------0--------------------------|
B|-------0------------0-------------------------------0------------0------------------------|
G|------------------------------------------------------------------------------------------|
D|-----------------------9-9-9-9--9-9--9-9-9-9------------------------9-9-9-9--9------9---9-|
A|-3-3-3----3-3-7-7------9-9-9-9--9-9--9-9-9-9--3-3-3----3-3-7-7------9-9-9-9--9------9---9-| 
E|-3-3-3----3-3-7-7------7-7-7-7--7-7--7-7-7-7--3-3-3----3-3-7-7------7-7-7-7--7------7---7-|
B|-1-1-1----1-1-5-5------7-7-7-7--7-7--7-7-7-7--1-1-1----1-1-5-5------7-7-7-7--7-7-7--7-7-7-|
E|-----------------------7-7-7-7--7-7--7-7-7-7------------------------7-7-7-7--7-7-7--7-7-7-|
                                                                                 . .    .

E|-------0----------0---------------------------------0----------0---------------------------------|
B|-------0------------0-------------------------------0------------0-------------------------------|
G|-------------------------------------------------------------------------------------------------|
D|-----------------------9-9-9-9--9------9---9------------------------9-9-9-9--9-9--9-9-9-9--------|
A|-3-3-3----3-3-7-7------9-9-9-9--9------9---9--3-3-3----3-3-7-7------9-9-9-9--9-9--9-9-9-9--------|
E|-3-3-3----3-3-7-7------7-7-7-7--7------7---7--3-3-3----3-3-7-7------7-7-7-7--7-7--7-7-7-7--------|
B|-1-1-1----1-1-5-5------7-7-7-7--7-7-7--7-7-7--1-1-1----1-1-5-5------7-7-7-7--7-7--7-7-7-7--------|
E|-----------------------7-7-7-7--7-7-7--7-7-7------------------------7-7-7-7--7-7--7-7-7-7--7/15\3|
                                    . .    . .

E|------------------------------------------------------------------------------------|
B|------------------------------------------------------------------------------------|
G|------------------------------------------------------------------------------------|
D|------------------------------------------------------------------------------------|
A|----------------------------x4------------------------x3----------------------------|
E|------------------------------------------------------------------------------------|
B|-----------------------x-x----------------------------------------------------------|
E|-0-0-0-1/3--0-0-0-1/3--x-x------0-0-0-1/3--0-0-0-1/3------0-0-0-1/3--0-0-0--15b-br\-|


E|-----------------------------------------------------------------0---0-|
B|-----------------------------------------------THROWING IN SOME:-0-&-0-|
G|-----------------------------------------------EVERY NOW & AGAIN-----0-|
D|-----------------------------------------------------------------------|
A|---------------------------------------X ALOT--------------------------|
E|-7-7-7----7-7-7--7\-1-1-1----1-1-1--1/---------------------------------|
B|-7-7-7----7-7-7--7\-1-1-1----1-1-1--1/---------------------------------|
E|-7-7-7----7-7-7--7\-1-1-1----1-1-1--1/---------------------------------|
   . . .    . . .  .  . . .    . . .  . 
Добавлено: 03.07.2013
Другие материалы по этой песне:

Страница создана 03.07.2013
http://primanota.ru/deftones/gauze-chords.htm
Привет, Гость.
Предлагаем пройти революционный курс по гитаре.
Подарок от PrimaNota.Ru, забирай!