PrimaNota.ru - самый крупный в мире бесплатный архив песенных текстов, аккордов, табулатур и нот


Deftones - Do They Know Its Christmas - таба, видео

Регистрация Запомнить меня
Войти через:  Facebook Google Twitter Vk Yandex Mail.ru

Deftones - Do They Know Its Christmas - таба, видео

Печатать
Просмотров: 76
Deftones - Do They Know It's Christmas?
Standard Tuning

Riff 1

E------------------------------------------------|
B---19-------------------------19---19-----------|
G-----16-18----16---18--16-18---------18-16-18---|
D-----------16--------16-------------------------|
A--------------14--------------------------------|
E------------------------------------------------|

--------16--19------------------------------|
-----19-------19----------19----19-19-------|
--16--------------16--18-----16-------18-16-|
16----------------------16------------------|
--------------------------------------------|
--------------------------------------------|

the other guitar comes in making this part hard to hear
---------------------------------19--|
--19-------------------19--------19--|
-----18---16-18--18-------18-16--16--|
-------16-----------16-----------16--|
-------------------------------------|
-------------------------------------|

listen for the rhythm
------------------------------------|
------------------------------------|
---4--------------4-------------4---|
---4--------2--4--4-------2--4--4---|
---2--------2--4--2-------2--4--2---|
------------0--2----------0--2------|

and in a world....
----------------------------|
----------------------------|
-----------4-------6--------|
---2---4---4---2---6--4-----|
---2---4---2---2---4--4-----|
---0---2-------0------2-----|

lets say a prayer
---------------------------------|
---------------------------------|
---4--------------4--------------|
---4--------2--4--4-------2--4---|
---2--------2--4--2-------2--4---|
------------0--2----------0--2---|

but when youre....
---------------------------------------|
---------------------------------------|
--4------------4-------6-------4-------|
--4----2---4---4---2---6---4---4---2---|
--2----2---4---2---2---4---4---2---2---|
-------0---2-------0-------2-------0---|

and the xmas bells are ringing.....
---------------------------------------|
---------------------------------------|you...
--6-------4-------6------------4-------|
--6---4---4---2---6---4--------4-------|
--4---4---2---2---4---4--------2-------|
------2-------0-------2----------------|

1:48
----------------------------------|
----------------------------------|
---------4-------------is-life...-|
--2--4---4-----2---4---4----------|
--2--4---2-----2---4---2----------|
--0--2---------0---2--------------|

------------------------------------------------------|
--------------------at-all...-------------------------|
---------4-----6-----4----------------13---11-9-11----|
--2---4--4--2--6--4--4---9---11-13-9------------------|
--2---4--2--2--4--4--2--------------------------------|
--0---2-----0-----2-----------------------------------|

heres to u...
---------------------------------------------|
---------------------------------------------|
------------------------------------------4--|
--6--------4-------6------4------2----4---4--|
--6--------4-------6------4------2----4---2--|
--4--------2-------4------2------0----2------|

------------------------------------------------------|
------------------------------------------------------|
---------------13--11-9-11----13-16-11----9--8--6--4--|
--9---11-13-9--------------9-----------9--------------| x12
------------------------------------------------------|
------------------------------------------------------|

just mess around for the crazy ending

then end on:
---------------------------------------12-|
------------------------------------^^----|
-13-11-9-11---13-11-9-8-9-8-6-3-4---99----|
------------------------------------------|
------------------------------------------|
------------------------------------------|
Добавлено: 13.11.2015
Другие материалы по этой песне:
  • Аккорды и текст

Страница создана 13.11.2015
http://primanota.ru/deftones/do-they-know-its-christmas-chords.htm
Привет, Гость.
Предлагаем пройти революционный курс по гитаре.
Подарок от PrimaNota.Ru, забирай!