PrimaNota.ru - самый крупный в мире бесплатный архив песенных текстов, аккордов, табулатур и нот


Deftones - Dallas - таба, видео

Регистрация Запомнить меня
Войти через:  Facebook Google Twitter Vk Yandex Mail.ru

Deftones - Dallas - таба, видео

Печатать
Просмотров: 80
-------------------------------------------------------------------------------
                             Dallas - Deftones
-------------------------------------------------------------------------------
Tabbed by: Schurman
E-mail: quin@qschurman.net

Tuning: E Standard (Stephen Carpenter uses an 8 string tuned to F# Standard, but that isn't required.)

This is an unreleased song from the Deftones album Eros. (RIP Chi)

VERSE (Chi)
E |------------15-------13---|
B |-*----13-------13-------*-|
G |---12----12-------12------|
D |--------------------------|
A |-*----------------------*-|
E |--------------------------|


PRE CHORUS (Steph)
E |-----------------------------------------------|
B |-----------------------------------------------|
G |---12-12-12-12-12-12-10-10-8-8-8-8-8-8\7-7~~~~-|
D |-----------------------------------------------|
A |-----------------------------------------------|
E |-----------------------------------------------|
B |-----------------------------------------------|
F#|-----------------------------------------------|

E |-----------------------------------------------|
B |-----------------------------------------------|
G |---12-12-12-12-12-12-10-10-8-8-8-8-8-8\7-------|
D |-----------------------------------------8~~~~-|
A |-----------------------------------------------|
E |-----------------------------------------------|
B |-----------------------------------------------|
F#|-----------------------------------------------|


CHORUS (Steph)
E |-------------------------------------------------------------------------|
B |------------11---------11------------------------------------------------|
G |---------10----12~~-10----12~~-10-12-10-10-10h12-10h12-8-12-8-7-5--------|
D |---12b^-----------------------------------------------------------8~~~---|
A |-------------------------------------------------------------------------|
E |-------------------------------------------------------------------------|
B |-------------------------------------------------------------------------|
F#|-------------------------------------------------------------------------|


E |---------------------------------------------------------------------------------------|
B |--------------11---------11-----------------------------------9~~-8--------------10~~~-|
G |-----------10----12~~-10----12~~-10-12-10-10-10h12-10h12-8h10-------10-8~~~-7----------|
D |---10-12b^--------------------------------------------------------------------10-------|
A |---------------------------------------------------------------------------------------|
E |---------------------------------------------------------------------------------------|
B |---------------------------------------------------------------------------------------|
F#|---------------------------------------------------------------------------------------|

E |-------------|
B |-------------|
G |---8--10b^---|
D |-------------|
A |-------------|
E |-------------|
B |-------------|
F#|-------------|

VERSE (Chi)

PRE CHORUS (Steph)

CHORUS/END (Steph)
E |----------------------------------------------------------------|
B |---------------------13-13-----------------------------13--11b^-|
G |---15-15-15-15-15-15-------12-12-12-12-12-------12~~~~----------|
D |------------------------------------------13-12-----------------|
A |----------------------------------------------------------------|
E |----------------------------------------------------------------|
B |----------------------------------------------------------------|
F#|----------------------------------------------------------------|


************************************

| /   slide up
| \   slide down
| h   hammer-on
| p   pull-off
| ~   vibrato
| +   harmonic
| x   Mute note
| b   Bend
| pb  Pre-bend
| br  Bend release
| pbr Pre-bend release
| brb Bend release bend

************************************
Добавлено: 13.11.2015
Вам также может быть интересно:
Другие материалы по этой песне:
  • Аккорды и текст

Страница создана 13.11.2015
http://primanota.ru/deftones/dallas-chords.htm
Привет, Гость.
Предлагаем пройти революционный курс по гитаре.
Подарок от PrimaNota.Ru, забирай!