PrimaNota.ru - самый крупный в мире бесплатный архив песенных текстов, аккордов, табулатур и нот


Deftones - Beauty School - текст песни, таба, видео

Регистрация Запомнить меня
Войти через:  Facebook Google Twitter Vk Yandex Mail.ru

Deftones - Beauty School - текст песни, таба, видео

Печатать
Просмотров: 362
Авторы: Deftones

Any errors or corrections feel free to comment or send me
an email at: dfri013@aucklanduni.ac.nz 

Oh- and according to the GP5 version this song is in C#.
I've tabbed if for Drop C as its my preferred tuning.
If you do want to play this song in C# simply 
play each note one fret lower.

Intro 0.00-0.22

d|----4--8---4---6---------4--8---4---6-----------4/--| X2
A|-6--------------------6---------------6------6------|
F|----------------------------------------------------|
C|----------------------------------------------------|
G|----------------------------------------------------|
C|----------------------------------------------------|


Verse (cont) 0.22-0.40

d|-8-8-8-8-8-8-8-8------------------------------------| X7
A|----------------------------------------------------|
F|----------------------------------------------------|
C|----------------------------------------------------|
G|----------------------------------------------------|
C|----------------------------------------------------|



Verse 0.40-0.49

d|-------/333-44444444-66666668-88888888--------------|
A|----------------------------------------------------|
F|----------------------------------------------------|
C|----------------------------------------------------|
G|----------------------------------------------------|
C|----------------------------------------------------|


Pre-chorus 0.49-0.58 ~~left blank till me or someone
else can work it out.. (or pinch if from the .GP5 
file =] ) to which I'll fully credit that tabber for
their assistance.~~

d|----------------------------------------------------|
A|----------------------------------------------------|
F|----------------------------------------------------|
C|----------------------------------------------------|
G|----------------------------------------------------|
C|----------------------------------------------------|


Chorus 0.58-1.29
d|----------------------------------------------------|
A|----------------------------------------------------|
F|--8-[x32] -3-[x16]--8-[x32]--10-[x16]---------------|
C|--6--------1--------6--------8----------------------|
G|--6--------1--------6--------8----------------------|
C|--6--------1--------6--------8----------------------|
[x##] <--denotes number of times to play that chord

Prechorus 1.29 - 1.38 ~~

Intro 1.42-1.52
Verse 1.52-2.09
Verse (cont) 2.09-2.19
Prechorus 2.19-2.28
Chorus 2.28 - 2.58
Intro 2.58- 3.07

Modified Chorus 3.07-4.11

d|--------8[x32]-6[x16]-8[x32]-6[x16]-6[x16]-----------| X2
A|-----------------------------------------------------|
F|-----------------------------------------------------|
C|-----------------------------------------------------|
G|-----------------------------------------------------|
C|-----------------------------------------------------|

Guitar 2 plays the chorus section under this with the 
only difference beingextending the number of times the 
final chord is played to 32 times instead of 16.


Outro
4.11-4.44 ~~ as with teh pre-chorus, left blank till i
have time to work it out =]




This is my first tab I've submitted, so hopefully i 
haven't screwed it upto badly. It *IS* still missing
the prechorus and outro though.. Rate, comment and cheers!
Добавлено: 27.09.2013
Другие материалы по этой песне:
  • Аккорды и текст

Страница создана 27.09.2013
http://primanota.ru/deftones/beauty-school-chords.htm
Привет, Гость.
Предлагаем пройти революционный курс по гитаре.
Подарок от PrimaNota.Ru, забирай!