PrimaNota.ru - самый крупный в мире бесплатный архив песенных текстов, аккордов, табулатур и нот


Defleshed - Speeding The Ways - текст песни, таба, видео

Регистрация Запомнить меня
Войти через:  Facebook Google Twitter Vk Yandex Mail.ru

Defleshed - Speeding The Ways - текст песни, таба, видео

Печатать
Просмотров: 94
Band:  Defleshed
Album: Fast forward
Song:  Speeding the ways



-  - palm mute           /  - slide up to
\  - slide down to       ~  - vibrato
h  - hammer on           b  - Bend
p  - pull off            Suffixes for bend
t  - tap                 f  - full bend    h - half bend
ph - pinched harmonic    q  - quarter bend t - tap bend
*  - see comment         ^  - Hold bend    r release bend
x  - Stuccatto           ~  - vibrato bend
,  - slight palm mute    () - ghost note, sustained note
"  - tremolo note        <> - Trill  

Tuning 3 half steps down 

|----4-times-----|---------|
|----------------|---------|
|----------------|---------|
|-6-------5------|-6-------|
|-4---6---5------|-4---6---|
|-----4---3------|-----4---|
      -                -

|-----------------------------------------------------------------|
|-----------------------------------------------------------------|
|-----------------------------------------------------------------|
|-4-----5-----6-------------------4-----5-----6-------------------|
|-----------------4-444-4-444-444-----------------------5---------|
|---3-3---3-3-----------------------3-3---3-3-----5-6-7---7-6-5-4-|
    - -   - -     - --- - --- ---   - -   - -     - - - - - - - -

|-------------------------last-time--------------------------------|
|------------------------------------------------------------------|
|------------------------------------------------------------------|
|-4-----5-----6-------------------4-----5-----6--------------------|
|-----------------4-444-4-444-444-----------------------5-7---10---|
|---3-3---3-3-----------------------3-3---3-3-----5-6-7---5---8----|
    - -   - -     - --- - --- ---   - -   - -     - - - -   

|------------------------------------------------------------------|
|------------------------------------------------------------------|
|------------------------------------------------------------------|
|------------------------------------------------------------------|
|---------9-----------9---3---6-----------4-----------5---7---10---|
|-7-777-7-7---7-777-7-7---1---4---1-111-1-2---1-111-1-3---5---8----|
  - --- -     - --- -             - --- -     - --- -

|---------------------------------------------------------------------|
|---------------------------------------------------------------------|
|---------------------------------------------------------------------|
|-----------------------------------3-----------------------3-----0---|
|-3---------------3-----------------3---------------3-------3-----0---|
|-1---000000003p0-1---000000003p0-------000000003p0-1---0-0---0-0-----|
      --------        --------          --------        - -   - -

|-----------------break---------------------|
|-------------------------------------------|
|-------------------------------------------|
|-----5-------4-----------------------------|
|-----3-------2---------------------------2-|
|-0-0-----0-0-----3-2-0-3-2-0-3-2-0-3-2-0-0-|
  - -     - -     - - - - - - - - - - - -

|---------------------1-and-3-times-----------------------|
|---------------------------------------------------------|
|-7----------7------8------7------------------------------|
|-7----------7------8------7--5--7------------------------|
|---00000000---0000---0000----5--7----------------------5-|
|-----------------------------------6-5-6-5-6-5-6-5-6-5-3-|
    --------   ----   ----          - - - - - - - - - -

|----------------------second-time-----------------------|
|--------------------------------------------------------|
|-7----------7------8------7---------------------------5-|
|-7----------7------8------7--5--7--------------7------5-|
|---00000000---0000---0000----5--7--------------7--0-0---|
|-----------------------------------6-5-6-5-6-5----------|
    --------   ----   ----          - - - - - -    - -

|-----------------------last-time----------------------------|
|------------------------------------------------------------|
|-7----------7------8------7---------------------------------|
|-7----------7------8------7--5--7---------------------------|
|---00000000---0000---0000----5--7------------------7---10---|
|-----------------------------------6-5-6-5-6-5-6-5-5---8----|
    --------   ----   ----          - - - - - - - - 

|--break-4-times--|-----------------|
|-----------------|-----------------|
|-----------------|-----------------|
|-5-----6-----7---|-----------------|
|-----------------|-------5---------|
|---3-3---3-3-----|-5-6-7---7-6-5-4-|
    - -   - -       - - - - - - - -

|--------------------------------ending-----------------------------------|
|-------------------------------------------------------------------------|
|7----------7------8------7-----------------------------------------------|
|7----------7------8------7--5--7------------------6-------5------6------5|
|--00000000---0000---0000----5--7------------------4---6---5------4---6--5|
|----------------------------------6-5-6-5-6-5-6-5-----4---3----------4--3|
   --------   ----   ----          - - - - - - - -     -              -
Добавлено: 13.06.2013
Другие материалы по этой песне:
  • Аккорды и текст

Страница создана 09.07.2012
http://primanota.ru/defleshed/speeding-the-ways-chords.htm
Привет, Гость.
Предлагаем пройти революционный курс по гитаре.
Подарок от PrimaNota.Ru, забирай!