PrimaNota.ru - самый крупный в мире бесплатный архив песенных текстов, аккордов, табулатур и нот


Defleshed - Proud to be Dead - текст песни, таба, видео

Регистрация Запомнить меня
Войти через:  Facebook Google Twitter Vk Yandex Mail.ru

Defleshed - Proud to be Dead - текст песни, таба, видео

Печатать
Просмотров: 83
Band:  Defleshed
Album: Fast forward
Song:  Proud to be dead


-  - palm mute           /  - slide up to
\  - slide down to       ~  - vibrato
h  - hammer on           b  - Bend
p  - pull off            Suffixes for bend
t  - tap                 f  - full bend    h - half bend
ph - pinched harmonic    q  - quarter bend t - tap bend
*  - see comment         ^  - Hold bend    r release bend
x  - Stuccatto           ~  - vibrato bend
,  - slight palm mute    () - ghost note, sustained note
"  - tremolo note        <> - Trill  

Tuning 3 half steps down  

|---------intro---------|
|-----------------------|
|-----------------------|
|-----------------------|
|----------7h11-10p6--6-|
|-0-000-0-------------4-|
  - --- -
 (now attention, listen to this part very often 
  till you understand the tempo of the guitar for
  the 3 and 4 time, it's very tricky)                               
|--------------------------3-times--------------------------------|
|-----------------------------------------------------------------|
|-----------------------------------------------------------------|
|-9-------7-------------------------------7-----------------------|
|-7---6---------5-----7-----6-----8---5---------5-----7-----6-----|
|-----4-----4-4---4-4---4-4---4-4-6---3-----4-4---4-4---4-4---4-4-|
            - -   - -   - -   - -           - -   - -   - -   - -
|-------------------------last-time---------------------------------|
|-------------------------------------------------------------------|
|-------------------------------------------------------------------|
|-9-------7-------------------------------7-------------------------|
|-7---6---------5-----7-----6-----8---5---------5-----7-----6-----6-|
|-----4-----4-4---4-4---4-4---4-4-6---3-----4-4---4-4---4-4---4-4-4-|
            - -   - -   - -   - -           - -   - -   - -   - -
|------------------------3-times------------------------|-------------|
|-------------------------------------------------------|-------------|
|-------------------------------------------------------|-------------|
|-------------------------------------------------------|-------------|
|---------7h11-10p6---------7h11-10p6---------7h11-10p6-|-----------8-|
|-0-000-0-----------0-000-0-----------0-000-0-----------|-0-000-0-0-6-|
  - --- -           - --- -           - --- -             - --- - -  
|-----------------------last-times----------------------|---------------|
|-------------------------------------------------------|---------------|
|-------------------------------------------------------|---------------|
|-------------------------------------------------------|---------------|
|---------7h11-10p6---------7h11-10p6---------7h11-10p6-|-----------6-6-|
|-0-000-0-----------0-000-0-----------0-000-0-----------|-3-333-3-3-4-4-|
  - --- -           - --- -           - --- -             - --- - -     
  

|--------------------------4-times-----------------------------------|
|--------------------------------------------------------------------|
|--------------------------------------------------------------------|
|---------------------------------------------------------------7----|
|-7---5---7--10---7---5---7---5/7---5---7--10---5h6p5-----5--6-----6-|
|-5-0-3-0-5-0-8-0-5-0-3-0-5-0-3/5-0-3-0-5-0-8-0--------8-------------|
    -   -   -   -   -   -   -     -   -   -   -        -  -  -
|-first-time-
|---only-----
|------------
|--------9-/-
|--------7-/-
|------------
 
-----------------------------4-times----------------------------------|
----------------------------------------------------------------------|
----------------------------------------------------------------------|
-10---------------8h9------------------------------12\9---------------|
--8---------------------------------9h10-----------10\7---7-777-7-777-|
-----7-777-7-777-------7-777-7-777--------7-777-7---------------------|
     - --- - ---       - --- - ---        - --- -         - --- - ---
|----------------------|
|----------------------|
|----------------------|
|-----------------7----|
|-5h6p5-----5--6-----6-|
|--------8-------------|
         -  -  -
|------------------------------------------------|
|------------------------------------------------|
|------------------------------------------------|
|------------------------------------------------|
|-5-------------6-------------4-------------4----|
|-3-----0-000-0-6-----0-0-6-0-2-----0-0-6-0-2----|
        - --- -       - - - -       - - - -
|-----------------------------------------------------------------|
|-----------------------------------------------------------------|
|-----------------------------------------------------------------|
|-----------------1-----------------------------------------------|
|-5---------------1---------2-1-------------2-1-------------------|
|-3---1-111-1-111-----1-111-----3-2---1-111-----3-2---1-111-1-111-|
      - --- - ---     - ---           - ---           - --- - ---
|-----------------------------------|
|-----------------------------------|
|-----------------------------------|
|-----9h10--------------------------|
|---------------8h9---------------7-|
|-7-7-------7-7------7-7-7h8—-5-5-5-|
  - -       - -      - -      - - 
|-------------------------------------------------------------------|
|-------------------------------------------------------------------|
|-------------------------------------------------------------------|
|10----------10-----------12------------------10-----------8h9-10\9-|
|-8-----------8-----------10-------9-----------8----------------8\7-|
|-----7-777-7-----7-777-7------5-8-7---7-777-7-----7-777-7----------|
      - --- -     - --- -      - -     - --- -     - --- -
|-------------------end---------------------|
|-------------------------------------------|
|-------------------------------------------|
|-----------------7--8----------------2-----|
|-5h6p5-----5--6-----6----------6--8--2-----|
|--------8-----------6----------4-—6—-0-----|
         -  -  -
Добавлено: 14.10.2013
Другие материалы по этой песне:
  • Аккорды и текст

Страница создана 23.02.2012
http://primanota.ru/defleshed/proud-to-be-dead-chords.htm
Привет, Гость.
Предлагаем пройти революционный курс по гитаре.
Подарок от PrimaNota.Ru, забирай!