PrimaNota.ru - самый крупный в мире бесплатный архив песенных текстов, аккордов, табулатур и нот


Defleshed - Lightning Strikes Thrice - текст песни, таба, видео

Регистрация Запомнить меня
Войти через:  Facebook Google Twitter Vk Yandex Mail.ru

Defleshed - Lightning Strikes Thrice - текст песни, таба, видео

Печатать
Просмотров: 85
Band:  Defleshed
Album: Fast forward
Song:  Lightning strikes thrice



-  - palm mute           /  - slide up to
\  - slide down to       ~  - vibrato
h  - hammer on           b  - Bend
p  - pull off            Suffixes for bend
t  - tap                 f  - full bend    h - half bend
ph - pinched harmonic    q  - quarter bend t - tap bend
*  - see comment         ^  - Hold bend    r release bend
x  - Stuccatto           ~  - vibrato bend
,  - slight palm mute    () - ghost note, sustained note
"  - tremolo note        <> - Trill

Tuning 3 half steps down

|--------------------------2-times--------------------------------|
|-----------------------------------------------------------------|
|-----------------------------------------------------------------|
|-------------------------5---5-----------------------------------|
|-5-----------5-----------5---5---5-----------5-----------4-2-5-4-|
|-3---4p3-4p3-3---4p3-4p3---6---6-3---4p3-4p3-3---4p3-4p3-2-0-3-2-|
  -           -             -   - -           -             - - -

|-------------break-------------|
|-------------------------------|
|-------------------------------|
|---------------/5--------------|
|-4-2-5-4-2-------------3---5---|
|-2-0-3-2-0-------------3---5---|
    - - -

|---------------------------------------------------------------------------|
|---------------------------------------------------------------------------|
|---------------------------------------------------------------------------|
|----3-----------3---3-----------3---3-----------3--------------------------|
|3---3-----------3---3-----------3---3-----------3-------3---5--5p0-5p0-5p0-|
|1-------0-000-0---------0-000-0-1-------0-000-0-----0-0-3---5--------------|
          - --- -         - --- -         - --- -     - -
 -------------------------------------------------------------|
 -------------------------------------------------------------|
 -------------------------------------------------------------|
 -3-----------3---3---------------3-----------5-------5-------|
 -3-----------3---3-----------3---3-----------5-------5-------|
 -----0-000-0---------0-000-0-1-------0-000-0-----0-0-----0-0-|
      - --- -         - --- -         - --- -     - -     - -

|------------------------------------------------------------------------|
|------------------------------------------------------------------------|
|------------------------------------------------------------------------|
|-5p0-5p0-----------5p0-5p0-------3---5p0-5p0------------------------9---|
|---------------3h4---------------1\0---------------3h4------6---7-7-7---|
|---------0-000-------------0-000-------------0-000------4-4-4-----------|
          - ---             - ---             - ---      - -     - -


|------------3-times--------------|-----------last-time-------------|
|---------------------------------|---------------------------------|
|---------------------------------|---------------------------------|
|---------------------------------|---------------------------------|
|-5-------------------------------|-5-------------------6-------8---|
|-3---3-333-3-333-3-333-3-4-6-4-6-|-3-3-333-3-333---4-4-4---6-6-6---|
      - --- - --- - --- - - - - -     - --- - ---   - -     - -

|-----------------------------------------------------------------|
|-----------------------------------------------------------------|
|-----------------------------------------------------------------|
|-----------------------------------------------------------------|
|-----5---------------5---------------5---------------6-------8---|
|-3-3-3---4-6-4-6-3-3-3---4-6-4-6-3-3-3---4-6-4-6-4-4-4---6-6-6---|
  - -     - - - - - -     - - - - - -     - - - - - -     - -

|-----------------------------|
|-----------------------------|
|-----------------------------|
|-----------------------------|
|-3---6-------3---6---5-------|
|-3---6-------3---6---5-------|


|----------------------------2-times--------------------------------|
|-------------------------------------------------------------------|
|-------------------------------------------------------------------|
|-------------------------------------5-----------------------------|
|-6-----------5-------5-------5---6---5-----------------5-------5---|
|-6---5h6-7p6-5---3-3-3---3-3-3---6-------5h6-7p6---3-3-3---3-3-3---|
                  - -     - -                       - -     - -

|----------------------------2-times--------------------------------|
|-------------------------------------------------------------------|
|-------------------------------------------------------------------|
|-------------------------------------5-----------------------------|
|-6-----------5-------5-------5---6---5-----------------5-------5---|
|-6---5h6-7p6-5---3-3-3---3-3-3---6-------5h6-7p6---3-3-3---3-3-3---|
                  - -     - -     -                 - -     - -

|-------------------------------------------------------------------|
|-------------------------------------------------------------------|
|-------------------------------------------------------------------|
|-9-----------7h8p7-9-------7---8---9-----------7h8p7-9----------10-|
|-7-----8-----------7---8---5---6---7-----8-----------7---8---9---8-|
|---0-0-6-0-0---------0-6-0---0-------0-0-6-0-0---------0-6-0-7-0---|
    - -   - -         -   -   -       - -   - -         -   -   -

|----------------------------4-times--------------------------------|
|-------------------------------------------------------------------|
|-------------------------------------------------------------------|
|-------------------------------------5-----------------------------|
|-6-----------5-------5-------5---6---5-----------------5-------5---|
|-6---5h6-7p6-5---3-3-3---3-3-3---6-------5h6-7p6---3-3-3---3-3-3---|
                  - -     - -                       - -     - -

|----------ending----------|
|--------------------------|
|--------------------------|
|-----------------5\-------|
|-----5-------5---5\-------|
|-3-3-3---3-3-3---3\-------|
  - -     - -
Добавлено: 11.07.2013
Другие материалы по этой песне:
  • Аккорды и текст

Страница создана 21.03.2012
http://primanota.ru/defleshed/lightning-strikes-thrice-chords.htm
Привет, Гость.
Предлагаем пройти революционный курс по гитаре.
Подарок от PrimaNota.Ru, забирай!