PrimaNota.ru - самый крупный в мире бесплатный архив песенных текстов, аккордов, табулатур и нот


Definition Of Sound - Pass The Vibes - таба, видео

Регистрация Запомнить меня
Войти через:  Facebook Google Twitter Vk Yandex Mail.ru

Definition Of Sound - Pass The Vibes - таба, видео

Печатать
Просмотров: 79
Pass The Vibes by Definition Of Sound

Lyrics:

CHORUS: 
Pass the vibes on and take it easy,
Just flow baby just flow.

Verse 1:
2pm, It's raining outside,
Now Floyd had no plans to steal himself a new ride,
But Simone lived on the other side of town,
It's been a week since she's defined her sound.

Splashing water on his face, there goes the phone,
It's the girl from last night saying she wants to get him on his own.
He vaguely recalls but don't know her name,
He plays it cool and conversates all the same.

CHORUS

Verse 2:
She says "meet me on the corner of your block at ten o'clock,
I've got a figure-hugging dress and I know what I've got".
"She's obviously got taste so who am I to refuse?"
Besides Simone's out of reach and she's got the blues.

She says "I'll be there, I'll see you later"
Later on we'll pass that vibe on.
Five to ten, the xxxxx is set
He strolls outside, still wond'ring what he's gonna get.

CHORUS

Verse 3:
There she is on the corner, she's right on time,
Her face looks so familiar, her figure lines are fine.
She says "my name is Mona, Simone is my sister,
I've been sent to prevent you from seeing her.

Right, don't say a word, hold my hand and walk on,
If you take it easy we'll pass the vibes on".

CHORUS

Main riff:

(/=slide)

E--11-9----9---------------------------------------------------------------
B-------11---11-9-11--9----9---------------------9-11-----9/10-9-----------
G-----------------------11----11----8-8-----8-10--------8------------11----
D--------------------------------11------11-----------------------13----13-
A--------------------------------------------------------------------------
E--------------------------------------------------------------------------

E--------------11--16-14-----------
B--------11-14-----------16-14-----
G--11-13-----------------------15--
D----------------------------------
A----------------------------------
E----------------------------------

Vocal melody (for chorus):

E----------------------------------
B--------------2-------------------
G------------3---3---1-------------
D--1-1-4-1---------1---4--1---1-1--
A----------4----------------4------
E----------------------------------

Verse chords:

||: Ebm       |Ebm       |Cb       |Ebm       :||

(time before chorus, last bar = Db)

Chorus chords are same as verse chords.

Interlude chords are tough to work out, but they're something like this...

|Ebmaj7       |Ebmaj7       |Bmaj7       |Bmaj7      |Db6(9)       |Db6(9)       |

|Ab7(9)       |Gbmaj7(13)       |

And that's it!  Enjoy passing the vibes...

(Comments/corrections to rocbreeze@hotmail.com)
Добавлено: 18.06.2013
Другие материалы по этой песне:
  • Аккорды и текст

Страница создана 18.06.2013
http://primanota.ru/definition-of-sound/pass-the-vibes-chords.htm
Привет, Гость.
Предлагаем пройти революционный курс по гитаре.
Подарок от PrimaNota.Ru, забирай!