PrimaNota.ru - самый крупный в мире бесплатный архив песенных текстов, аккордов, табулатур и нот


Defiance - The Fault - таба, видео

Регистрация Запомнить меня
Войти через:  Facebook Google Twitter Vk Yandex Mail.ru

Defiance - The Fault - таба, видео

Печатать
Просмотров: 35
Defiance - The Fault

Riff 1


e|------------------|
B|------------------|
G|------------------|
D|---2--3--2-----2--|
A|---2--1--0--5--2--|
E|-0----------3--0--|
   .

e|-----------------------|-----|
B|-----------------------|-----|
G|-----------------------|-----|
D|-----------------------|-----|
A|-------------3-3--2-2--|-----|
E|-0--0--0-0-0-1-1--0-0--|-000-|
   .  .  . . . . .         ...

e|--------------------------------------|
B|--------------------------------------|
G|--------------------------------------|
D|--------------------------------------|
A|-------------3-3--------3-3--------3-3|
E|-0--0--0-0-0-1-1--0-0-0-1-1--0-0-0-1-1|
   .  .  . . . . .  . . . . .  . . . . .

Riff 2

e|------------------------------|
B|------------------------------|
G|------------------------------|
D|---2--3--2--------------------|
A|---2--1--0--5--6--6-6--6--6-6-|
E|-0----------3--4--4-4--4--4-4-|
   .                . .     . . 

e|-------------------------------|
B|-------------------------------|
G|-------------------------------|
D|-10/9----------------4---------|
A|--8/7---10/9/6/9-6---2---3---2-|
E|------0--8/7/4/7-4-0---0-1-0-0-|
        .            .   .   . .

e|---------------|
B|---------------|
G|---------------|
D|-3-2-----------|
A|-----3-2---2-3-|
E|---------5-----|
       . . . . .

Riff 3

e|------------------------------|
B|------------------------------|
G|------------------------------|
D|-9--------5/4-------------10--|
A|-7--------3/2---4/5---4/5- 8--|
E|-----0-0------0-2/3-0-2/3-----|
       . .      .     .

e|--------------|
B|--------------|
G|--------------|
D|-----4-----3--|
A|-----2-----1--|
E|-000---000----|
   ...   ...

Riff 4

e|-----------------------------|---|-----|
B|-----------------------------|---|-----|
G|-----------------------------|---|-----|
D|-----------------------------|-8-|-8---|
A|-777-888-777-666-777-888-777-|-6-|-6-7-|
E|-----------------------------|---|---5-|
   ... ... ... ... ... ... ...

Riff 5

e|----------------------------------|----|------|
B|----------------------------------|----|------|
G|----------------------------------|----|------|
D|----------------------------------|----|------|
A|-14---15---14---13---14---15---14-|-13-|-13-7-|
E|-12-0-13-0-12-0-11-0-12-0-13-0-12-|-11-|-11-5-|
   .. . .. . .. . .. . .. . .. . ..

Riff 6

e|-------------------------|-----|-----|
B|-------------------------|-----|-----|
G|-------------------------|-----|-----|
D|-------------------------|-4-3-|-----|
A|-4---5---4---3---4---5---|-2-1-|-4-3-|
E|-2-0-3-0-2-0-1-0-2-0-3-0-|-----|-2-1-|
   . . . . . . . . . . . . 

Solo

e|-----------------------------------------------------|
B|-----------------------------------------------------|
G|-14h16p14-------------13-12-13-12h13p12h13p12h13p12~-|
D|----------14~------14--------------------------------|
A|----------------14-----------------------------------|
E|-----------------------------------------------------|

e|--------------------------------------------------------|
B|-12h15p12----12h16p12----12h15p12----12h16p12----12-15~-|
G|----------15----------15----------15----------15--------|
D|--------------------------------------------------------|
A|--------------------------------------------------------|
E|--------------------------------------------------------|

e|------------------------------------------------------------|
B|-12h15p12--------------15-----15--15----15------------------|
G|----------15p12h15p12--14b16------14b16------12h14p12----12-|
D|------------------------------------------------------14----|
A|------------------------------------------------------------|
E|------------------------------------------------------------|

e|-----------------------------|
B|-----------------------------|
G|-----------------------------|
D|--12b(a.h)-------------------|
A|------------10~(a.h)---------|
E|-----------------------------|

2 Guitars:

e|----------------------------------|
B|-15b17--15b17--15--14-------------|
G|------------------------14--12~---|
D|----------------------------------|
A|----------------------------------|
E|----------------------------------|

Slighty palm muted:

e|--------------------------------------------------|
B|--------------------------------------------------|
G|--------------------------------------------------|
D|----12-14-16-14-12----------12-14-16-17-16-14-12--|
A|-16----------------16-14-16-----------------------|
E|--------------------------------------------------|

e|-----------------------------------------------|
B|-----------------------------------------------|
G|-----------------------------------------------|
D|-----------------------------------------------|
A|-16-14-12----12--------------------------------|
E|----------15----15-14-12~---10--12--14-12~-----|

e|--------------------------------------------------------------|
B|--------------------------------------------------------------|
G|--------------------------------------------------------------|
D|--------------------------------------------------------------|
A|----------12----------------12---------12---12-14-15-12-14-15-|
E|-12-14-15----15-14-12-14-15----15-14-15---15------------------|

e|-------------------------------------------------------------------------|
B|----------------------------------------------------------------------14~|
G|----------------------------------------------------12-14-15-12-14-15----|
D|-12----------------12-------12----12-14-16-12-14-16----------------------|
A|----15-14-12-14-15----15-14----15----------------------------------------|
E|-------------------------------------------------------------------------|

Legend:
~ Vibrato
/ Slide
h Hammer On
p Pull off
b Bend
a.h Artificial Harmonic

Notes with dots under tabs are palm muted


Riff 1(x3)
Riff 2(x2)
Riff 1(x2)
Riff 2(x2)
Riff 1(x2)
Riff 3(x4)
Riff 4(x2)
Riff 5(x2)
Riff 6(x2)
Solo(Riff 3)
Riff 1(x4)
Riff 2(x2)
Riff 1





Добавлено: 14.06.2016
Другие материалы по этой песне:
  • Аккорды и текст

Страница создана 14.06.2016
http://primanota.ru/defiance/fault-chords.htm
Привет, Гость.
Предлагаем пройти революционный курс по гитаре.
Подарок от PrimaNota.Ru, забирай!