PrimaNota.ru - самый крупный в мире бесплатный архив песенных текстов, аккордов, табулатур и нот


Defeated Sanity - Apocalypse Of Filth - Collapsing Human Failures - таба, видео

Регистрация Запомнить меня
Войти через:  Facebook Google Twitter Vk Yandex Mail.ru

Defeated Sanity - Apocalypse Of Filth - Collapsing Human Failures - таба, видео

Печатать
Просмотров: 169
Уроки эстрадного вокала в Санкт-Петербурге
--- DEFEATED SANITY  --- 
               "Apocalypse Of Filth/Collapsing Human Failures" 
                     From album: "Prelude To The Tragedy" 
                
                            TABULATURE LEGEND: 
                   " - tremolo             h - hammer on            
                   ~ - vibrato             \ - slide down 
                   p - pull off            / - slide down 
                  tr - trill               ^ - pinch harmonics      
                   = - sustained note      b - bend string          
                p.m. - palm muting         t - tapping 

TUNING: C [C, F, Bb, eb, g, c] 

[Riff 1] 
|---------------------------------|-------------------------------|- 
|---------------------------------|-------------------------------|- 
|---------------------------------|-------------------------------|- 
|---------------------------------|-2-----------------2-----------|- 
|---------------------------------|-2-------------------3---------|- 
|-000-000-000-000-000-000-000-000-|---000-000-000-1-0-----0-4-0-1-|- 
  ... ... ... ... ... ... ... ...     ... ... ... . . . . . . . . 

-|---------------------------------|-------------------------------| 
-|---------------------------------|-------------------------------| 
-|---------------------------------|-------------------------------| 
-|-------------------------------2-|-1-----------------------------| 
-|-------------------------------2-|-1-------------2-0-----3-0-----| 
-|-000-000-000-000-000-000-000-0---|---000-000-000-----3-5-----5-0-| 
   ... ... ... ... ... ... ... .       ... ... ... . . . . . . . . 

[Riff 2a] 
|--------------------------------------------|- 
|--------------------------------------------|- 
|--------------------------------------------|- 
|-----------------------3"-2"----2"-1"-------|- 
|-2"-1"2"3"-2"1"--------------3"-------1"-4"-|- 
|----------------0"...-----------------------|- 
|                                            | 
|--------------------------------------------|- 
|--------------------------------------------|- 
|--------------------------------------------|- 
|-----------------------3"-2"----2"-1"-------|- 
|-----------------------------3"-------1"-4"-|- 
|----------------0"...-----------------------|- 

-|--------------------------------------------| 
-|--------------------------------------------| 
-|--------------------------------------------| 
-|-----------------------3"-2"----2"-1"-------| 
-|-2"-1"2"3"-2"1"--------------3"-------2--5--| 
-|----------------4"...-----------------0--3--| 
 |                                      .  .  | 
-|--------------------------------------------| 
-|--------------------------------------------| 
-|--------------------------------------------| 
-|-----------------------3"-2"----2"-1"-------| 
-|-2"-1"2"3"-2"1"--------------3"-------2--5--| 
-|----------------4"...-----------------0--3--| 
                                        .  . 

[Riff 2b] 
|--------------------------------------------|- 
|--------------------------------------------|- 
|--------------------------------------------|- 
|-----------------------3"-2"----2"-1"-------|- 
|-2"-1"2"3"-2"1"--------------3"-------1"-4"-|- 
|----------------0"...-----------------------|- 
|                                            | 
|--------------------------------------------|- 
|--------------------------------------------|- 
|-----------------------5"-4"----4"-3"-------|- 
|-4"-3"4"5"-4"3"--------------5"-------3"-6"-|- 
|----------------2"...-----------------------|- 
|--------------------------------------------|- 

-|--------------------------------------------| 
-|--------------------------------------------| 
-|--------------------------------------------| 
-|-----------------------3"-2"----2"-1"-------| 
-|-2"-1"2"3"-2"1"--------------3"-------2--5--| 
-|----------------4"...-----------------0--3--| 
 |                                      .  .  | 
-|--------------------------------------------| 
-|--------------------------------------------| 
-|-----------------------5"-4"----4"-3"-------| 
-|-4"-3"4"5"-4"3"--------------5"-------------| 
-|----------------6"...-----------------2--5--| 
-|--------------------------------------0--3--| 
                                        .  . 

[Riff 3a (x2)] 
||-----------------------------|-------------------------|- 
||o----------------------------|-------------------------|- 
||-----------------------------|---4-3---8-6-7-5---------|- 
||--2-----2-5-4-------2"-6"-5"-|-5-----5---------8-5-8-5-|- 
||o---3-2-------1"-4"----------|-------------------------|- 
||-----------------------------|-------------------------|- 
    . . . . . .                  . . . . . . . . . . . . 

----------------------------|--------------------------|| 
----------------------------|-------------------------o|| 
----------------------------|---4-3---8-6-7-5----------|| 
-2-----2-5-4-------2"-6"-5"-|-5-----5------------------|| 
---3-2-------1"-4"----------|-------------------------o|| 
----------------------------|-----------------6-3-6-3--|| 
 . . . . . .                  . . . . . . . . . . . . 

[Outro 1] 
|---------------------------------|-------------------------------------|- 
|---------------------------------|-------------------------------3-----|- 
|-------------3-2-----------4-----|-------------------------------------|- 
|-----4-2---------4-1-4-6-5---6-5-|-------6-------------------4-1---5-5-|- 
|-4-3-----4-1---------------------|-6-7-6-------------------------------|- 
|---------------------------------|---------4-3-3-3-3-3-3-2-0-----------|- 
| . . . . . . . . . . . . . . . . | . . . . . . . . . . . . . . . . . . | 
|---------------------------------|-------------------------------------|- 
|---------------------------------|-------------------------------3-----|- 
|-------------3-2-----------4-----|-------------------------------------|- 
|-----4-2---------4-1-4-6-5---6-5-|-------6-------------------4-1---5-5-|- 
|-4-3-----4-1---------------------|-6-7-6-------------------------------|- 
|---------------------------------|---------4-3-3-3-3-3-3-2-0-----------|- 
  . . . . . . . . . . . . . . . .   . . . . . . . . . . . . . . . . . . 

-|---------------------------------|-------------------------------------| 
-|---------------------------------|-------------------------------3-----| 
-|-------------3-2-----------4-----|-------------------------------------| 
-|-----4-2---------4-1-4-6-5---6-5-|-------6-------------------4-1---5-5-| 
-|-4-3-----4-1---------------------|-6-7-6-------------------------------| 
-|---------------------------------|---------4-3-3-3-3-3-3-2-0-----------| 
 | . . . . . . . . . . . . . . . . | . . . . . . . . . . . . . . . . . . | 
-|---------------------------------|-------------------------------------| 
-|---------------------------------|-------------------------------------| 
-|---------------------------------|-------------------------------------| 
-|-2========-.........-------------|-------------------------------------| 
-|-2========..............---------|-------------------------------------| 
-|-0========..................-----|-------------------------------------| 

[RIFF 1] [RIFF 2a /both gutiars/] [RIFF 2b] 

[Outro 2]] 
|---------------------------|-------------------------------------------| 
|---------------------------|-------------------------------------------| 
|---------------------------|-------------------------------------------| 
|---------------------------|-------------------3tr6--6tr9--3tr6--5tr8--| 
|---------------------------|----^--------4tr7--------------------------| 
|---------------------------|----3~--0-0--------------------------------| 
|                           |        . .                                | 
|---------------------------|-------------------------------------------| 
|---------------------------|-------------------------------------------| 
|---------------------------|-------------------------------------------| 
|------------3-------4------|-------------------3tr6--6tr9--3tr6--5tr8--| 
|-5--^-------1--6----2-4-3--|-5--^--------4tr7--------------------------| 
|-3--3~--0-0-1--4------2-1--|-3--3~--0-0--------------------------------| 
         . .         . . .           . . 

[Riff 5 (x3)] 
|---------------------------|-------------------------------------------| 
|---------------------------|-------------------------------------------| 
|---------------------------|-------------------------------------------| 
|------------3-------4------|-------------------3tr6--6tr9--3tr6--5tr8--| 
|-5--^-------1--6----2-4-3--|-5--^--------4tr7--------------------------| 
|-3--3~--0-0-1--4------2-1--|-3--3~--0-0--------------------------------| 
         . .         . . .           . . 

[Outro 3] 
|-------------------|------------| 
|-------------------|------------| 
|-4tr7--3tr6--------|------------| 
|-------------2tr5--|------------| 
|-------------------|-1tr4--5----| 
|-------------------|-------3----| 

[Riff 6] 
|---------------------------------------------------|- 
|---------------------------------------------------|- 
|---------7-----6-----------3-2---------7-----6-----|- 
|-------5---5-----5-------3-------4-------5-----5---|- 
|-------------4-----4---4-------3---3-------4-----4-|- 
|-2"...---------------2---------------5-------------|- 
        . . . . . . . . . . . . . . . . . . . . . . 

-|---------------------------|--------------------------------| 
-|---------------------------|--------------------------------| 
-|---------7-----6-----------|-3-2-----------------3-5---5----| 
-|-------5---5-----5-------3-|-------4-----------------5---6--| 
-|-------------4-----4---4---|-----3---3-4-5------------------| 
-|-2"...---------------2-----|---------------6"...------------| 
         . . . . . . . . . .   . . . . . . .       . . . . . 

[Riff 7a] 
|-------------------------------------|------------------------| 
|-------------------------------------|------------------------| 
|-------------6h8p6-------------------|---------6h8p6----------| 
|-------------------6h8p6-5-----6-----|---------------6h8p6-5--| 
|-------------------------------------|------------------------| 
|-000-1-0-4-0---------------000---000-|-1-0-4-0----------------| 
  ... . . . .             . ... . ...   . . . . 

[RIFF 6] 

[Riff 7b] 
|-------------------------------------|------------------------------|- 
|-------------------------------------|------------------------------|- 
|-------------6h8p6-------------------|---------6h8p6----------------|- 
|-------------------6h8p6-5-----6-----|---------------6h8p6-5-----6--|- 
|-------------------------------------|------------------------------|- 
|-000-1-0-4-0---------------000---000-|-1-0-4-0---------------0-0----|- 
  ... . . . .             . ... . ...   . . . .             . . . . 

-|------------------------------------------------------| 
-|------------------------------------------------------| 
-|-------------6h8p6------------------------------------| 
-|-------------------6h8p6-5----------5"----4"-6"-5"-4"-| 
-|------------------------------4"-3"----6"-------------| 
-|-000-1-0-4-0---------------0"-------------------------| 
   ... . . . .                

[Riff 8a (x2)] 
||-----------------------------------|---------------------------|| 
||o----------------------------------|--------------------------o|| 
||-----------------------------------|---------------------------|| 
||--6666666655555555------5533333333-|-22222222------------------|| 
||o-----------------777777-----------|---------4444444477777777-o|| 
||-----------------------------------|---------------------------|| 
|   ................................ | ........................   | 
||-----------------------------------|---------------------------|| 
||o----------------------------------|--------------------------o|| 
||-----------------------------------|---------------------------|| 
||--6666666655555555------5533333333-|-22222222------------------|| 
||o-----------------777777-----------|---------4444444477777777-o|| 
||-----------------------------------|---------------------------|| 
    ................................   ........................ 

[Riff 8b] 
|----------------------------------|--------------------------| 
|----------------------------------|--------------------------| 
|----------------------------------|--------------------------| 
|-6666666655555555------5533333333-|-22222222-----------------| 
|-----------------777777-----------|---------4444444477777777-| 
|----------------------------------|--------------------------| 
| ................................ | ........................ | 
|----------------------------------|--------------------------| 
|----------------------------------|--------------------------| 
|----------------------------------|--------------------------| 
|----------------------------------|--------------------------| 
|-3333333322222222------2200000000-|--------------------------| 
|-----------------444444-----------|-444444441111111144444444-| 
  ................................   ........................ 

[Riff 8c] 
|----------------------------------|--------------------------| 
|----------------------------------|--------------------------| 
|----------------------------------|--------------------------| 
|-6666666655555555------5533333333-|-22222222---------2======-| 
|-----------------777777-----------|---------44444444-2======-| 
|----------------------------------|------------------0======-| 
| ................................ | .................        | 
|----------------------------------|--------------------------| 
|----------------------------------|--------------------------| 
|-4444444433333333------3311111111-|-00000000---------3======-| 
|-----------------555555-----------|---------22222222-1======-| 
|----------------------------------|------------------1======-| 
|----------------------------------|--------------------------| 
  ................................   ................ 

[Riff 9a] 
|-------------------------|--------------------------|- 
|-------------------------|--------------------------|- 
|-------------------------|--------------------------|- 
|-------------------------|-----------------8-----11-|- 
|-------7-----------3-----|-------7------------------|- 
|-6-3-0---6-5-6-3-0---6-5-|-6-3-0---6-5-6-0---9-0----|- 
| . . . . . . . . . . . . | . . . . . . . . . . . .  | 
|-------------------------|--------------------------|- 
|-------------------------|--------------------------|- 
|-------------------------|--------------------------|- 
|-------------------------|-----------------8-----11-|- 
|-------7-----------3-----|-------7------------------|- 
|-6-3-0---6-5-6-3-0---6-5-|-6-3-0---6-5-6-0---9-0----|- 
  . . . . . . . . . . . .   . . . . . . . . . . . . 

-|-------------------------|------------------------------| 
-|-------------------------|------------------------------| 
-|-------------------------|------------------------------| 
-|-------------------------|------------------------------| 
-|-------7-----------3-----|-------7----------------------| 
-|-6-3-0---6-5-6-3-0---6-5-|-6-3-0---6-5-8888666688888888-| 
 | . . . . . . . . . . . . | . . . . . . ................ | 
-|-------------------------|------------------------------| 
-|-------------------------|------------------------------| 
-|-------------------------|------------------------------| 
-|-------------------------|------------------------------| 
-|-------7-----------3-----|-------7----------------------| 
-|-6-3-0---6-5-6-3-0---6-5-|-6-3-0---6-5------------------| 
   . . . . . . . . . . . .   . . . . . . 

[Riff 9b (x2)] /slowly/ 
||-----------------------------------------------------------------|- 
||o----------------------------------------------------------------|- 
||-----------------------------------------------------------------|- 
||--6"...----5"...------------5"-3"----2"...-----------------------|- 
||o-------------------7"...----------------------4"...----7"...----|- 
||-----------------------------------------------------------------|- 
|                                                                  | 
||-----------------------------------------------------------------|- 
||o----------------------------------------------------------------|- 
||-----------------------------------------------------------------|- 
||--------------------------------------------------------------8--|- 
||o----------7-----------------3-----------------7-----------------|- 
||--6--3--0-----6--5--6--3--0-----6--5--6--3--0-----6--5--6--0-----|- 
    .  .  .  .  .  .  .  .  .  .  .  .  .  .  .  .  .  .  .  .  . 

-|-----------------------------------------------------------------|| 
-|----------------------------------------------------------------o|| 
-|-----------------------------------------------------------------|| 
-|-6"...----5"...------------5"-3"----2"...------------------------|| 
-|-------------------7"...----------------------4"...----7"...----o|| 
-|-----------------------------------------------------------------|| 
 |                                                                  | 
-|-----------------------------------------------------------------|| 
-|----------------------------------------------------------------o|| 
-|-------------------------------------------------------------11--|| 
-|-------11-------------------------------------------8------------|| 
-|-------------------7-----------------3--------------------------o|| 
-|-9--0-----6--3--0-----6--5--6--3--0-----6--5--6--0-----9--0------|| 
   .  .  .  .  .  .  .  .  .  .  .  .  .  .  .  .  .  .  .  .  . 

[Outro 4] 
|----------------------------------| 
|----------------------------------| 
|----------------------------------| 
|----------------------------------| 
|-666644443333----44443333----2222-| 
|-------------6666--------4444-----| 
| ................................ | 
|----------------------------------| 
|----------------------------------| 
|----------------------------------| 
|----------------------------------| 
|----------------------------------| 
|----------------------------------| 

[RIFF 2a] [RIFF 2b] 

[Riff 3b (x4] 
||-----------------------------|--------------------------|| 
||o----------------------------|-------------------------o|| 
||-----------------------------|---4-3---8-6-7-5----------|| 
||--2-----2-5-4-------2"-6"-5"-|-5-----5---------8-5-8-5--|| 
||o---3-2-------1"-4"----------|-------------------------o|| 
||-----------------------------|--------------------------|| 
    . . . . . .                  . . . . . . . . . . . . 

[RIFF 8c] /hold last chord/ 

END OF SONG
Добавлено: 30.08.2013
Другие материалы по этой песне:

Страница создана 27.07.2013
http://primanota.ru/defeated-sanity/apocalypse-of-filth-collapsing-human-failures-chords.htm
Привет, Гость.
Предлагаем пройти революционный курс по гитаре.
Подарок от PrimaNota.Ru, забирай!