PrimaNota.ru - самый крупный в мире бесплатный архив песенных текстов, аккордов, табулатур и нот


Default - Movin' On - текст песни, таба, видео

Регистрация Запомнить меня
Войти через:  Facebook Google Twitter Vk Yandex Mail.ru

Default - Movin' On - текст песни, таба, видео

Печатать
Просмотров: 109
Default
Movin' On
Drop D tuning  DADGBe
Tabbed by Iank live_and_burn@hotmail.com

Intro / Verse		
e|--------------------------------------------|
B|---------------------------------------2----|
G|-----------------11--------------4---------*|
D|----------7-------------------4-----4------*|
A|-------9------9--------0h2-2----------------|
D|----0---------------------------------------|

Pre-Chorus:
e|------------------------------------------------------|
B|------------------------------------------------------|
G|------------------------------------------------------|
D|---5-X-X-5-X-X-5-X-X-5-X-X-7--7--7--7--7--7--7--------|
A|---5-X-X-5-X-X-5-X-X-5-X-X-7--7--7--7--7--7--7--------|
D|---5-X-X-5-X-X-5-X-X-5-X-X-7--7--7--7--7--7--7--12\---|
   
Chorus:
e|--------------------------------------------|
B|--------------------------------------------|
G|---4--4----7--7--7--7---2--2--2--2--2--2----|
D|---4--4----7--7--7--7---2--2--2--2--2--2----|
A|---2--2----5--5--5--5---0--0--0--0--0--0----|
D|--------------------------------------------|
  
e|----------------------------------------------------|
B|----------------------------------------------------|
G|---4--4----7--7--7--7-------------------------------|
D|---4--4----7--7--7--7---5-7-------7-----------------|
A|---2--2----5--5--5--5-------5-7-5---5-7-5-7^(9)-----|
D|----------------------------------------------------|

e|--------------------------------------------|
B|--------------------------------------------|
G|---4--4----7--7--7--7---2--2--2--2--2--2----|
D|---4--4----7--7--7--7---2--2--2--2--2--2----|
A|---2--2----5--5--5--5---0--0--0--0--0--0----|
D|--------------------------------------------|
 
e|-------------------------------------------|
B|-----------------------------------3-------|
G|---5-5-5-5-5-5-5-5-----------------2-------|
D|---5-5-5-5-5-5-5-5--5-4-0--5-4-0---0-------|
A|---3-3-3-3-3-3-3-3--5-4-0--5-4-0---0-------|
D|--------------------5-4-0--5-4-0---0-------|
    
End of 2nd Chorus:
e|-------------------------------------|
B|-----------------------------3-------|
G|---5-5-5-5-5-5-5-5-----------2-------|
D|---5-5-5-5-5-5-5-5--5-4-0----0-------|
A|---3-3-3-3-3-3-3-3--5-4-0----0-------|
D|--------------------5-4-0----0-------|
   
Bridge: 						      
e|---------------------------------------------------------------|
B|---------------------------------------------------------------|
G|----------------------------------9h11-11-9/7-6-6---6----------|
D|----------------------------------0---------------0------------|
A|--9h12-9h12-9h12-9h12-12-14-12-9-------------------------------|
D|---------------------------------------------------------------|
Добавлено: 12.09.2013
Другие материалы по этой песне:
  • Аккорды и текст

Страница создана 02.06.2012
http://primanota.ru/default/movin-on-chords.htm
Привет, Гость.
Предлагаем пройти революционный курс по гитаре.
Подарок от PrimaNota.Ru, забирай!