PrimaNota.ru - самый крупный в мире бесплатный архив песенных текстов, аккордов, табулатур и нот


Default - Little Too Late - текст песни, таба, видео

Регистрация Запомнить меня
Войти через:  Facebook Google Twitter Vk Yandex Mail.ru

Default - Little Too Late - текст песни, таба, видео

Печатать
Просмотров: 265
Уроки эстрадного вокала в Санкт-Петербурге
-------------------------------------------------------------------------------
			     SONG NAME - Little Too Late
-------------------------------------------------------------------------------
Original Written by:Default
Tabbed by:MuizR
Email:manutdfan_muiz@hotmail.com

 >>Rhythm Part<<

Verse 1  and 2

e|--0-0--0-0--0-0--0-0---------------------------------------------------------|
B|--0-0--0-0--0-0--0-0---------------------------------------------------------|
G|--1-1--2-2--6-6--2-2---------------------------------------------------------|
D|--2-2--2-2--6-6--2-2---------------------------------------------------------|
A|--2-2--0-0--4-4--0-0---------------------------------------------------------|
E|--0-0------------------------------------------------------------------------|


Pre Chorus

e|--0-0--0-0--0-0--0-0------------------------------------------------------------------|
B|--0-0--0-0--0-0--0-0------------------------------------------------------------------|
G|--6-6--2-2--4-4--2-2------------------------------------------------------------------|
D|--6-6--2-2--4-4--2-2------------------------------------------------------------------|
A|--4-4--0-0--2-2--0-0------------------------------------------------------------------|
E|--------------------------------------------------------------------------------------|


Chorus

e|--0-0--0-0--0-0--0-0-----------------------------------------------------------------|
B|--0-0--0-0--0-0--0-0-----------------------------------------------------------------|
G|--1-1--4-4--2-2--2-2-----------------------------------------------------------------|
D|--2-2--4-4--4-4--2-2-----------------------------------------------------------------|
A|--2-2--2-2--4-4--0-0-----------------------------------------------------------------|
E|--0-0--------------------------------------------------------------------------------|

e|--0-0--0-0--0-0--0-0-----------------------------------------------------------------|
B|--0-0--0-0--0-0--0-0-----------------------------------------------------------------|
G|--1-1--4-4--2-2--2-2-----------------------------------------------------------------|
D|--2-2--4-4--4-4--2-2-----------------------------------------------------------------|
A|--2-2--2-2--4-4--0-0-----------------------------------------------------------------|
E|--0-0--------------------------------------------------------------------------------|

e|--0-0--0-0--0-0--0-0--0-0--0~--0~------------------------------------------------------|
B|--0-0--0-0--0-0--0-0--0-0--0~--0~------------------------------------------------------|
G|--9-9--8-8--6-6--4-4--1-1--4~--2~------------------------------------------------------|
D|--9-9--8-8--6-6--4-4--2-2--4~--2~------------------------------------------------------|
A|--7-7--6-6--4-4--2-2--2-2--2~--0~------------------------------------------------------|
E|--0-0----------------------------------------------------------------------------------|


Verse
Pre Chorus
Chorus

Bridge

e|--2-2--0-0--0-0--2-2--0-0--0-0--|
B|--3-3--0-0--0-0--3-3--0-0--0-0--|
G|--2-2--2-2--1-1--2-2--2-2--4-4--|
D|--0-0--4-4--2-2--0-0--4-4--4-4--|
A|-------4-4--2-2-------4-4--2-2--|
E|--------------------------------|


Right After Bridge
e|--0~--0~--0~-----------------------------------------------------------------------|
B|--0~--0~--0~-----------------------------------------------------------------------|
G|--2~--2~--4~-----------------------------------------------------------------------|
D|--4~--2~--4~-----------------------------------------------------------------------|
A|--4~--0~--2~-----------------------------------------------------------------------|
E|-----------------------------------------------------------------------------------|


Chorus

Last part :

e|--0-0--0-0--0-0--0-0-----------------------------------------------------------------|
B|--0-0--0-0--0-0--0-0-----------------------------------------------------------------|
G|--1-1--2-2--4-4--2-2-----------------------------------------------------------------|
D|--2-2--4-4--6-6--2-2-----------------------------------------------------------------|
A|--2-2--4-4--6-6--0-0-----------------------------------------------------------------|
E|--0-0--------------------------------------------------------------------------------|

e|--0~-------------------------------------------------------------------------|
B|--0~-------------------------------------------------------------------------|
G|--1~-------------------------------------------------------------------------|
D|--2~-------------------------------------------------------------------------|
A|--2~-------------------------------------------------------------------------|
E|--0~-------------------------------------------------------------------------|

NOTE: Verse x2
      Pre Chorus x1
      Chorus x1
      Bridge x1
      ""Stum Pattern Not Shown""

| /  slide up
| \  slide down
| h  hammer-on
| p  pull-off
| ~  ring
| +  harmonic
| x  Mute note
===============================================================================
Добавлено: 02.06.2013
Другие материалы по этой песне:
  • Аккорды и текст

Страница создана 02.06.2013
http://primanota.ru/default/little-too-late-chords.htm
Привет, Гость.
Предлагаем пройти революционный курс по гитаре.
Подарок от PrimaNota.Ru, забирай!