PrimaNota.ru - самый крупный в мире бесплатный архив песенных текстов, аккордов, табулатур и нот


Default - Goodbye - таба, видео

Регистрация Запомнить меня
Войти через:  Facebook Google Twitter Vk Yandex Mail.ru

Default - Goodbye - таба, видео

Печатать
Просмотров: 133
Уроки эстрадного вокала в Санкт-Петербурге
Goodbye
Default
Comes and Goes (2009)

Goodbye:  written by Dallas Smith, Jeremy Hora, Dave Benedict, Danny Craig, 
Zac Maloy, and Bob Marlette

NOTE: I couldn't figure out the chorus lead, but the rest is there.

GTR I - Drop D Tuning (e,B,G,D,A,D)
GTR II - Drop D Tuning (e,B,G,D,A,D)

Intro

  GTR I,II
e|-------------------------------------------------|
B|-------------------------------------------------|
G|-------------------------------------------12-11-|
D|--0-10-12----12-10--0-10-12--0-12-10-----0--x--x-|
A|--0-10-12----12-10--0-10-12--0-12-10-----0-10--9-|
D|--0-10-12----12-10--0-10-12--0-12-10-----0-------|

  GTR I,II
e|-------------------------------------------------|
B|-------------------------------------------------|
G|-------------------------------------------12-11-|
D|----10-12----12-10--0-10-12--0-12-10-----0--x--x-|
A|----10-12----12-10--0-10-12--0-12-10-----0-10--9-|
D|----10-12----12-10--0-10-12--0-12-10-----0-------|

  GTR I,II
e|-------------------------------------------------|
B|-------------------------------------------------|
G|-------------------------------------------12-11-|
D|----10-12----12-10--0-10-12--0-12-10-----0--x--x-|
A|----10-12----12-10--0-10-12--0-12-10-----0-10--9-|
D|----10-12----12-10--0-10-12--0-12-10-----0-------|

  GTR I,II
e|-------------------------------------------------|
B|-------------------------------------------------|
G|-------------------------11----12-14----12-11----|
D|----10-12----12-10--0-10--x-----x--x-----x--x----|
A|----10-12----12-10--0-10--9----10-12----10--9----|
D|----10-12----12-10--0-10-------------------------|

Verse

  GTR I,II
e|-------------------------------------------------|
B|-------------------------------------------------|
G|-------------------------------------------------|
D|-----0--------0--------0--------0-------12-10----|
A|--0--0-----0--0-----0--0-----0--0-----0-12-10----|
D|--0--0-----0--0-----0--0-----0--0-----0-12-10----|
    .        .        .        .        .          

  GTR I,II
e|-------------------------------------------------|
B|-------------------------------------------------|
G|----------------------------------------12-11----|
D|-----0--------0--------0--------0--------x--x----|
A|-----0-----0--0-----0--0-----0--0-----0-10--9----|
D|-----0-----0--0-----0--0-----0--0-----0----------|
             .        .        .        .          

  GTR I,II
e|-------------------------------------------------|
B|-------------------------------------------------|
G|-------------------------------------------------|
D|-----0--------0--------0--------0-------12-10----|
A|-----0-----0--0-----0--0-----0--0-----0-12-10----|
D|-----0-----0--0-----0--0-----0--0-----0-12-10----|
             .        .        .        .          

  GTR I,II
e|-------------------------------------------------|
B|-------------------------------------------------|
G|----------------------------------------12-11----|
D|-----0--------0--------0--------0--------x--x----|
A|-----0-----0--0-----0--0-----0--0-----0-10--9----|
D|-----0-----0--0-----0--0-----0--0-----0----------|
             .        .        .        .          

  GTR I,II
e|-------------------------------------------------|
B|-------------------------------------------------|
G|-------------------------------------------12-11-|
D|----10-12----12-10--0-10-12--0-12-10-----0--x--x-|
A|----10-12----12-10--0-10-12--0-12-10-----0-10--9-|
D|----10-12----12-10--0-10-12--0-12-10-----0-------|

  GTR I,II
e|-------------------------------------------------|
B|-------------------------------------------------|
G|-------------------------------------------12-11-|
D|----10-12----12-10--0-10-12--0-12-10-----0--x--x-|
A|----10-12----12-10--0-10-12--0-12-10-----0-10--9-|
D|----10-12----12-10--0-10-12--0-12-10-----0-------|

  GTR I,II
e|-------------------------------------------------|
B|-------------------------------------------------|
G|-------------------------11----12-14----12-11----|
D|----10-12----12-10--0-10--x-----x--x-----x--x----|
A|----10-12----12-10--0-10--9----10-12----10--9----|
D|----10-12----12-10--0-10-------------------------|

  GTR I,II
e|-------------------------------------------------|
B|-------------------------------------------------|
G|-------------------------------------------------|
D|----10-12----12-10--0-10-12--0-12-10-------------|
A|----10-12----12-10--0-10-12--0-12-10-------------|
D|----10-12----12-10--0-10-12--0-12-10~------------|

Chorus

  GTR I
e|--x-----x-----x-----x-----x-----x-----x-----x--x-|
B|--3-----3-----3-----3-----3-----3-----3-----3--3-|
G|--2-----2-----2-----2-----2-----2-----2-----2--2-|
D|--0-----0-----0-----0-----0-----0-----0-----0--0-|
A|--0-----0-----0-----0-----0-----0-----0-----0--0-|
D|-------------------------------------------------|
 |
 |GTR II
e|-------------------------------------------------|
B|-------------------------------------------------|
G|-------------------------------------------------|
D|-------------------------------------------------|
A|-------------------------------------------------|
D|-------------------------------------------------|

  GTR I
e|-------------------------------------------------|
B|-------------------------------------------------|
G|--3-----3-----3-----3-----3-----3-----3-----3--3-|
D|--3-----3-----3-----3-----3-----3-----3-----3--3-|
A|--1-----1-----1-----1-----1-----1-----1-----1--1-|
D|-------------------------------------------------|
 |
 |GTR II
e|-------------------------------------------------|
B|-------------------------------------------------|
G|-------------------------------------------------|
D|-------------------------------------------------|
A|-------------------------------------------------|
D|-------------------------------------------------|

  GTR I
e|-------------------------------------------------|
B|-------------------------------------------------|
G|-------------------------------------------------|
D|--3-----3-----3-----3-----3-----3-----3-----3--3-|
A|--3-----3-----3-----3-----3-----3-----3-----3--3-|
D|--3-----3-----3-----3-----3-----3-----3-----3--3-|
 |
 |GTR II
e|-------------------------------------------------|
B|-------------------------------------------------|
G|-------------------------------------------------|
D|-------------------------------------------------|
A|-------------------------------------------------|
D|-------------------------------------------------|

  GTR I
e|-------------------------------------------------|
B|-------------------------------------------------|
G|--5-----5-----5-----5-----5-----5-----5-----5--5-|
D|--5-----5-----5-----5-----5-----5-----5-----5--5-|
A|--3-----3-----3-----3-----3-----3-----3-----3--3-|
D|-------------------------------------------------|
 |
 |GTR II
e|-------------------------------------------------|
B|-------------------------------------------------|
G|-------------------------------------------------|
D|-------------------------------------------------|
A|-------------------------------------------------|
D|-------------------------------------------------|

  GTR I
e|--x-----x-----x-----x-----x-----x-----x-----x--x-|
B|--3-----3-----3-----3-----3-----3-----3-----3--3-|
G|--2-----2-----2-----2-----2-----2-----2-----2--2-|
D|--0-----0-----0-----0-----0-----0-----0-----0--0-|
A|--0-----0-----0-----0-----0-----0-----0-----0--0-|
D|-------------------------------------------------|
 |
 |GTR II
e|-------------------------------------------------|
B|-------------------------------------------------|
G|-------------------------------------------------|
D|-------------------------------------------------|
A|-------------------------------------------------|
D|-------------------------------------------------|

  GTR I
e|-------------------------------------------------|
B|-------------------------------------------------|
G|--3-----3-----3-----3-----3-----3-----3-----3--3-|
D|--3-----3-----3-----3-----3-----3-----3-----3--3-|
A|--1-----1-----1-----1-----1-----1-----1-----1--1-|
D|-------------------------------------------------|
 |
 |GTR II
e|-------------------------------------------------|
B|-------------------------------------------------|
G|-------------------------------------------------|
D|-------------------------------------------------|
A|-------------------------------------------------|
D|-------------------------------------------------|

  GTR I
e|-------------------------------------------------|
B|-------------------------------------------------|
G|-------------------------------------------------|
D|--3-----3-----3-----3-----3-----3-----3-----3--3-|
A|--3-----3-----3-----3-----3-----3-----3-----3--3-|
D|--3-----3-----3-----3-----3-----3-----3-----3--3-|
 |
 |GTR II
e|-------------------------------------------------|
B|-------------------------------------------------|
G|-------------------------------------------------|
D|-------------------------------------------------|
A|-------------------------------------------------|
D|-------------------------------------------------|

  GTR I
e|-------------------------------------------------|
B|-------------------------------------------------|
G|-------------------------------------------------|
D|--1-----1-----1-----1-----1-----1-----1-----1--1-|
A|--1-----1-----1-----1-----1-----1-----1-----1--1-|
D|--1-----1-----1-----1-----1-----1-----1-----1--1-|
 |
 |GTR II
e|-------------------------------------------------|
B|-------------------------------------------------|
G|-------------------------------------------------|
D|-------------------------------------------------|
A|-------------------------------------------------|
D|-------------------------------------------------|

Post Chorus

  GTR I,II
e|-------------------------------------------------|
B|-------------------------------------------------|
G|-------------------------------------------12-11-|
D|--0-10-12----12-10--0-10-12--0-12-10-----0--x--x-|
A|--0-10-12----12-10--0-10-12--0-12-10-----0-10--9-|
D|--0-10-12----12-10--0-10-12--0-12-10-----0-------|

Verse

  GTR I,II
e|-------------------------------------------------|
B|-------------------------------------------------|
G|-------------------------------------------------|
D|-----0--------0--------0--------0-------12-10----|
A|--0--0-----0--0-----0--0-----0--0-----0-12-10----|
D|--0--0-----0--0-----0--0-----0--0-----0-12-10----|
    .        .        .        .        .          

  GTR I,II
e|-------------------------------------------------|
B|-------------------------------------------------|
G|----------------------------------------12-11----|
D|-----0--------0--------0--------0--------x--x----|
A|-----0-----0--0-----0--0-----0--0-----0-10--9----|
D|-----0-----0--0-----0--0-----0--0-----0----------|
             .        .        .        .          

  GTR I,II
e|-------------------------------------------------|
B|-------------------------------------------------|
G|-------------------------------------------------|
D|-----0--------0--------0--------0-------12-10----|
A|-----0-----0--0-----0--0-----0--0-----0-12-10----|
D|-----0-----0--0-----0--0-----0--0-----0-12-10----|
             .        .        .        .          

  GTR I,II
e|-------------------------------------------------|
B|-------------------------------------------------|
G|----------------------------------------12-11----|
D|-----0--------0--------0--------0--------x--x----|
A|-----0-----0--0-----0--0-----0--0-----0-10--9----|
D|-----0-----0--0-----0--0-----0--0-----0----------|
             .        .        .        .          

  GTR I,II
e|-------------------------------------------------|
B|-------------------------------------------------|
G|-------------------------------------------12-11-|
D|----10-12----12-10--0-10-12--0-12-10-----0--x--x-|
A|----10-12----12-10--0-10-12--0-12-10-----0-10--9-|
D|----10-12----12-10--0-10-12--0-12-10-----0-------|

  GTR I,II
e|-------------------------------------------------|
B|-------------------------------------------------|
G|-------------------------------------------12-11-|
D|----10-12----12-10--0-10-12--0-12-10-----0--x--x-|
A|----10-12----12-10--0-10-12--0-12-10-----0-10--9-|
D|----10-12----12-10--0-10-12--0-12-10-----0-------|

  GTR I,II
e|-------------------------------------------------|
B|-------------------------------------------------|
G|-------------------------11----12-14----12-11----|
D|----10-12----12-10--0-10--x-----x--x-----x--x----|
A|----10-12----12-10--0-10--9----10-12----10--9----|
D|----10-12----12-10--0-10-------------------------|

  GTR I,II
e|-------------------------------------------------|
B|-------------------------------------------------|
G|-------------------------------------------------|
D|----10-12----12-10--0-10-12--0-12-10-------------|
A|----10-12----12-10--0-10-12--0-12-10-------------|
D|----10-12----12-10--0-10-12--0-12-10~------------|

Chorus

  GTR I
e|--x-----x-----x-----x-----x-----x-----x-----x--x-|
B|--3-----3-----3-----3-----3-----3-----3-----3--3-|
G|--2-----2-----2-----2-----2-----2-----2-----2--2-|
D|--0-----0-----0-----0-----0-----0-----0-----0--0-|
A|--0-----0-----0-----0-----0-----0-----0-----0--0-|
D|-------------------------------------------------|
 |
 |GTR II
e|-------------------------------------------------|
B|-------------------------------------------------|
G|-------------------------------------------------|
D|-------------------------------------------------|
A|-------------------------------------------------|
D|-------------------------------------------------|

  GTR I
e|-------------------------------------------------|
B|-------------------------------------------------|
G|--3-----3-----3-----3-----3-----3-----3-----3--3-|
D|--3-----3-----3-----3-----3-----3-----3-----3--3-|
A|--1-----1-----1-----1-----1-----1-----1-----1--1-|
D|-------------------------------------------------|
 |
 |GTR II
e|-------------------------------------------------|
B|-------------------------------------------------|
G|-------------------------------------------------|
D|-------------------------------------------------|
A|-------------------------------------------------|
D|-------------------------------------------------|

  GTR I
e|-------------------------------------------------|
B|-------------------------------------------------|
G|-------------------------------------------------|
D|--3-----3-----3-----3-----3-----3-----3-----3--3-|
A|--3-----3-----3-----3-----3-----3-----3-----3--3-|
D|--3-----3-----3-----3-----3-----3-----3-----3--3-|
 |
 |GTR II
e|-------------------------------------------------|
B|-------------------------------------------------|
G|-------------------------------------------------|
D|-------------------------------------------------|
A|-------------------------------------------------|
D|-------------------------------------------------|

  GTR I
e|-------------------------------------------------|
B|-------------------------------------------------|
G|--5-----5-----5-----5-----5-----5-----5-----5--5-|
D|--5-----5-----5-----5-----5-----5-----5-----5--5-|
A|--3-----3-----3-----3-----3-----3-----3-----3--3-|
D|-------------------------------------------------|
 |
 |GTR II
e|-------------------------------------------------|
B|-------------------------------------------------|
G|-------------------------------------------------|
D|-------------------------------------------------|
A|-------------------------------------------------|
D|-------------------------------------------------|

  GTR I
e|--x-----x-----x-----x-----x-----x-----x-----x--x-|
B|--3-----3-----3-----3-----3-----3-----3-----3--3-|
G|--2-----2-----2-----2-----2-----2-----2-----2--2-|
D|--0-----0-----0-----0-----0-----0-----0-----0--0-|
A|--0-----0-----0-----0-----0-----0-----0-----0--0-|
D|-------------------------------------------------|
 |
 |GTR II
e|-------------------------------------------------|
B|-------------------------------------------------|
G|-------------------------------------------------|
D|-------------------------------------------------|
A|-------------------------------------------------|
D|-------------------------------------------------|

  GTR I
e|-------------------------------------------------|
B|-------------------------------------------------|
G|--3-----3-----3-----3-----3-----3-----3-----3--3-|
D|--3-----3-----3-----3-----3-----3-----3-----3--3-|
A|--1-----1-----1-----1-----1-----1-----1-----1--1-|
D|-------------------------------------------------|
 |
 |GTR II
e|-------------------------------------------------|
B|-------------------------------------------------|
G|-------------------------------------------------|
D|-------------------------------------------------|
A|-------------------------------------------------|
D|-------------------------------------------------|

  GTR I
e|-------------------------------------------------|
B|-------------------------------------------------|
G|-------------------------------------------------|
D|--3-----3-----3-----3-----3-----3-----3-----3--3-|
A|--3-----3-----3-----3-----3-----3-----3-----3--3-|
D|--3-----3-----3-----3-----3-----3-----3-----3--3-|
 |
 |GTR II
e|-------------------------------------------------|
B|-------------------------------------------------|
G|-------------------------------------------------|
D|-------------------------------------------------|
A|-------------------------------------------------|
D|-------------------------------------------------|

  GTR I
e|-------------------------------------------------|
B|-------------------------------------------------|
G|-------------------------------------------------|
D|--1-----1-----1-----1-----1-----1-----1-----1--1-|
A|--1-----1-----1-----1-----1-----1-----1-----1--1-|
D|--1-----1-----1-----1-----1-----1-----1-----1--1-|
 |
 |GTR II
e|-------------------------------------------------|
B|-------------------------------------------------|
G|-------------------------------------------------|
D|-------------------------------------------------|
A|-------------------------------------------------|
D|-------------------------------------------------|

Bridge

  GTR I
e|-------------------------------------------------|
B|-------------------------------------------------|
G|-------------------------------------------------|
D|-------------------------------------------------|
A|-------------------------------------------------|
D|--0--2--3--0--3--2--0--3--5--0--5--3--0--3--5~---|

  GTR I
e|-------------------------------------------------|
B|-------------------------------------------------|
G|-------------------------------------------------|
D|-------------------------------------------------|
A|-------------------------------------------------|
D|--0--3--5--0--5--3--0--5--7--0--7--5--0--5--7~---|

  GTR I
e|-------------------------------------------------|
B|-------------------------------------------------|
G|-------------------------------------------------|
D|-------------------------------------------------|
A|-------------------------------------------------|
D|--0--2--3--0--3--2--0--3--5--0--5--3--0--3--5~---|

  GTR I
e|-------------------------------------------------|
B|-------------------------------------------------|
G|-------------------------------------------------|
D|-------------------------------------------------|
A|-------------------------------------------------|
D|--0--3--5--0--5--3--0--5--7--0--7--5--0--5--7~---|

  GTR I
e|-------------------------------------------------|
B|-------------------------------------------------|
G|-------------------------------------------------|
D|-------------------------------------------------|
A|-------------------------------------------------|
D|--0--2--3--0--3--2--0--3--5--0--5--3--0--3--5~---|

  GTR I
e|-------------------------------------------------|
B|-------------------------------------------------|
G|-------------------------------------------------|
D|-------------------------------------------------|
A|-------------------------------------------------|
D|--0--3--5--0--5--3--0--5--7--0--7--5--0--5--7~---|

  GTR I
e|-------------------------------------------------|
B|-------------------------------------------------|
G|-------------------------------------------------|
D|-------------------------------------------------|
A|-------------------------------------------------|
D|--0--2--3--0--3--2--0--3--5--0--5--3--0--3--5~---|

  GTR I
e|-------------------------------------------------|
B|-------------------------------------------------|
G|-------------------------------------------------|
D|-------------------------------------------------|
A|-------------------------------------------------|
D|--0--3--5--0--5--3--0--5--7--0--7--5--0--5--7~---|

  GTR I
e|-------------------------------------------------|
B|-------------------------------------------------|
G|-------------------------------------------------|
D|-------------------------------------------------|
A|-------------------------------------------------|
D|--0--2--3--0--3--2--0--3--5--0--5--3--0--3--5~---|

  GTR I
e|-------------------------------------------------|
B|-------------------------------------------------|
G|-------------------------------------------------|
D|-------------------------------------------------|
A|-------------------------------------------------|
D|--0--3--5--0--5--3--0--5--7--0--7--5--0--5--7~---|

  GTR I
e|-------------------------------------------------|
B|-------------------------------------------------|
G|-------------------------------------------------|
D|-------------------------------------------------|
A|-------------------------------------------------|
D|--0--2--3--0--5--3--0--5--7--0--8--7--0--8--10b--|

Chorus 2

  GTR I
e|--x-----x-----x-----x-----x-----x-----x-----x--x-|
B|--3-----3-----3-----3-----3-----3-----3-----3--3-|
G|--2-----2-----2-----2-----2-----2-----2-----2--2-|
D|--0-----0-----0-----0-----0-----0-----0-----0--0-|
A|--0-----0-----0-----0-----0-----0-----0-----0--0-|
D|-------------------------------------------------|
 |
 |GTR II
e|-------------------------------------------------|
B|-------------------------------------------------|
G|-------------------------------------------------|
D|-------------------------------------------------|
A|-------------------------------------------------|
D|-------------------------------------------------|

  GTR I
e|-------------------------------------------------|
B|-------------------------------------------------|
G|--3-----3-----3-----3-----3-----3-----3-----3--3-|
D|--3-----3-----3-----3-----3-----3-----3-----3--3-|
A|--1-----1-----1-----1-----1-----1-----1-----1--1-|
D|-------------------------------------------------|
 |
 |GTR II
e|-------------------------------------------------|
B|-------------------------------------------------|
G|-------------------------------------------------|
D|-------------------------------------------------|
A|-------------------------------------------------|
D|-------------------------------------------------|

  GTR I
e|-------------------------------------------------|
B|-------------------------------------------------|
G|-------------------------------------------------|
D|--3-----3-----3-----3-----3-----3-----3-----3--3-|
A|--3-----3-----3-----3-----3-----3-----3-----3--3-|
D|--3-----3-----3-----3-----3-----3-----3-----3--3-|
 |
 |GTR II
e|-------------------------------------------------|
B|-------------------------------------------------|
G|-------------------------------------------------|
D|-------------------------------------------------|
A|-------------------------------------------------|
D|-------------------------------------------------|

  GTR I
e|-------------------------------------------------|
B|-------------------------------------------------|
G|--5-----5-----5-----5-----5-----5-----5-----5--5-|
D|--5-----5-----5-----5-----5-----5-----5-----5--5-|
A|--3-----3-----3-----3-----3-----3-----3-----3--3-|
D|-------------------------------------------------|
 |
 |GTR II
e|-------------------------------------------------|
B|-------------------------------------------------|
G|-------------------------------------------------|
D|-------------------------------------------------|
A|-------------------------------------------------|
D|-------------------------------------------------|

  GTR I
e|--x-----x-----x-----x-----x-----x-----x-----x--x-|
B|--3-----3-----3-----3-----3-----3-----3-----3--3-|
G|--2-----2-----2-----2-----2-----2-----2-----2--2-|
D|--0-----0-----0-----0-----0-----0-----0-----0--0-|
A|--0-----0-----0-----0-----0-----0-----0-----0--0-|
D|-------------------------------------------------|
 |
 |GTR II
e|-------------------------------------------------|
B|-------------------------------------------------|
G|-------------------------------------------------|
D|-------------------------------------------------|
A|-------------------------------------------------|
D|-------------------------------------------------|

  GTR I
e|-------------------------------------------------|
B|-------------------------------------------------|
G|--3-----3-----3-----3-----3-----3-----3-----3--3-|
D|--3-----3-----3-----3-----3-----3-----3-----3--3-|
A|--1-----1-----1-----1-----1-----1-----1-----1--1-|
D|-------------------------------------------------|
 |
 |GTR II
e|-------------------------------------------------|
B|-------------------------------------------------|
G|-------------------------------------------------|
D|-------------------------------------------------|
A|-------------------------------------------------|
D|-------------------------------------------------|

  GTR I
e|-------------------------------------------------|
B|-------------------------------------------------|
G|-------------------------------------------------|
D|--3-----3-----3-----3-----3-----3-----3-----3--3-|
A|--3-----3-----3-----3-----3-----3-----3-----3--3-|
D|--3-----3-----3-----3-----3-----3-----3-----3--3-|
 |
 |GTR II
e|-------------------------------------------------|
B|-------------------------------------------------|
G|-------------------------------------------------|
D|-------------------------------------------------|
A|-------------------------------------------------|
D|-------------------------------------------------|

  GTR I
e|-------------------------------------------------|
B|-------------------------------------------------|
G|--5-----5-----5-----5-----5-----5-----5-----5--5-|
D|--5-----5-----5-----5-----5-----5-----5-----5--5-|
A|--3-----3-----3-----3-----3-----3-----3-----3--3-|
D|-------------------------------------------------|
 |
 |GTR II
e|-------------------------------------------------|
B|-------------------------------------------------|
G|-------------------------------------------------|
D|-------------------------------------------------|
A|-------------------------------------------------|
D|-------------------------------------------------|

  GTR I
e|--x--x--x--x--x--x--x--x--x--x--x--x--x--x--x--x-|
B|--3--3--3--3--3--3--3--3--3--3--3--3--3--3--3--3-|
G|--2--2--2--2--2--2--2--2--2--2--2--2--2--2--2--2-|
D|--0--0--0--0--0--0--0--0--0--0--0--0--0--0--0--0-|
A|--0--0--0--0--0--0--0--0--0--0--0--0--0--0--0--0-|
D|-------------------------------------------------|
 |
 |GTR II
e|-------------------------------------------------|
B|-------------------------------------------------|
G|-------------------------------------------------|
D|-------------------------------------------------|
A|-------------------------------------------------|
D|-------------------------------------------------|

  GTR I
e|-------------------------------------------------|
B|-------------------------------------------------|
G|--3--3--3--3--3--3--3--3--3--3--3--3--3--3--3--3-|
D|--3--3--3--3--3--3--3--3--3--3--3--3--3--3--3--3-|
A|--1--1--1--1--1--1--1--1--1--1--1--1--1--1--1--1-|
D|-------------------------------------------------|
 |
 |GTR II
e|-------------------------------------------------|
B|-------------------------------------------------|
G|-------------------------------------------------|
D|-------------------------------------------------|
A|-------------------------------------------------|
D|-------------------------------------------------|

  GTR I
e|-------------------------------------------------|
B|-------------------------------------------------|
G|-------------------------------------------------|
D|--3--3--3--3--3--3--3--3--3--3--3--3--3--3--3--3-|
A|--3--3--3--3--3--3--3--3--3--3--3--3--3--3--3--3-|
D|--3--3--3--3--3--3--3--3--3--3--3--3--3--3--3--3-|
 |
 |GTR II
e|-------------------------------------------------|
B|-------------------------------------------------|
G|-------------------------------------------------|
D|-------------------------------------------------|
A|-------------------------------------------------|
D|-------------------------------------------------|

  GTR I
e|-------------------------------------------------|
B|-------------------------------------------------|
G|--5--5--5--5--5--5--5--5--5--5--5--5--5--5--5--5-|
D|--5--5--5--5--5--5--5--5--5--5--5--5--5--5--5--5-|
D|--3--3--3--3--3--3--3--3--3--3--3--3--3--3--3--3-|
D|-------------------------------------------------|
 |
 |GTR II
e|-------------------------------------------------|
B|-------------------------------------------------|
G|-------------------------------------------------|
D|-------------------------------------------------|
A|-------------------------------------------------|
D|-------------------------------------------------|

  GTR I
e|--x--x--x--x--x--x--x--x--x--x--x--x--x--x--x--x-|
B|--3--3--3--3--3--3--3--3--3--3--3--3--3--3--3--3-|
G|--2--2--2--2--2--2--2--2--2--2--2--2--2--2--2--2-|
D|--0--0--0--0--0--0--0--0--0--0--0--0--0--0--0--0-|
A|--0--0--0--0--0--0--0--0--0--0--0--0--0--0--0--0-|
D|-------------------------------------------------|
 |
 |GTR II
e|-------------------------------------------------|
B|-------------------------------------------------|
G|-------------------------------------------------|
D|-------------------------------------------------|
A|-------------------------------------------------|
D|-------------------------------------------------|

  GTR I
e|-------------------------------------------------|
B|-------------------------------------------------|
G|--3--3--3--3--3--3--3--3--3--3--3--3--3--3--3--3-|
D|--3--3--3--3--3--3--3--3--3--3--3--3--3--3--3--3-|
A|--1--1--1--1--1--1--1--1--1--1--1--1--1--1--1--1-|
D|-------------------------------------------------|
 |
 |GTR II
e|-------------------------------------------------|
B|-------------------------------------------------|
G|-------------------------------------------------|
D|-------------------------------------------------|
A|-------------------------------------------------|
D|-------------------------------------------------|

  GTR I
e|-------------------------------------------------|
B|-------------------------------------------------|
G|-------------------------------------------------|
D|--3--3--3--3--3--3--3--3--3--3--3--3--3--3--3--3-|
A|--3--3--3--3--3--3--3--3--3--3--3--3--3--3--3--3-|
D|--3--3--3--3--3--3--3--3--3--3--3--3--3--3--3--3-|
 |
 |GTR II
e|-------------------------------------------------|
B|-------------------------------------------------|
G|-------------------------------------------------|
D|-------------------------------------------------|
A|-------------------------------------------------|
D|-------------------------------------------------|

  GTR I
e|-------------------------------------------------|
B|-------------------------------------------------|
G|-------------------------------------------------|
D|--1--1--1--1--1--1--1--1--1--1--1--1--1--1--1--1-|
D|--1--1--1--1--1--1--1--1--1--1--1--1--1--1--1--1-|
D|--1--1--1--1--1--1--1--1--1--1--1--1--1--1--1--1-|
 |
 |GTR II
e|-------------------------------------------------|
B|-------------------------------------------------|
G|-------------------------------------------------|
D|-------------------------------------------------|
A|-------------------------------------------------|
D|-------------------------------------------------|

Outro

  GTR I,II
e|-------------------------------------------------|
B|-------------------------------------------------|
G|-------------------------------------------12-11-|
D|--0-10-12----12-10--0-10-12--0-12-10-----0--x--x-|
A|--0-10-12----12-10--0-10-12--0-12-10-----0-10--9-|
D|--0-10-12----12-10--0-10-12--0-12-10-----0-------|

  GTR I,II
e|-------------------------------------------------|
B|-------------------------------------------------|
G|-------------------------------12-11-------------|
D|----10-12----12-10--0-10-12--0--x--x-------------|
A|----10-12----12-10--0-10-12--0-10--9-------------|
D|----10-12----12-10--0-10-12--0-------------------|



| /  slide up
| \  slide down
| h  hammer-on
| p  pull-off
| ~  vibrato
| +  harmonic
| x  Mute note
===============================================================================
Добавлено: 24.08.2013
Другие материалы по этой песне:
  • Аккорды и текст

Страница создана 24.08.2013
http://primanota.ru/default/goodbye-chords.htm
Привет, Гость.
Предлагаем пройти революционный курс по гитаре.
Подарок от PrimaNota.Ru, забирай!