PrimaNota.ru - самый крупный в мире бесплатный архив песенных текстов, аккордов, табулатур и нот


Default - Break Doors Down - таба, видео

Регистрация Запомнить меня
Войти через:  Facebook Google Twitter Vk Yandex Mail.ru

Default - Break Doors Down - таба, видео

Печатать
Просмотров: 88
Tabbed by Jamie Harris
Tuning - Standard
Intro
-------------------------------------|
-3h5-----3h5----------5p3-----5p3----|
-------------------------------------|
----3-3-----3-3--x-x-----5-5-----5-5-|
----3-3-----3-3--x-x-----5-5-----5-5-|
----1-1-----1-1--x-x-----3-3-----3-3-| x 2

Verse: Play intro plam muted then
-----------|
-----5-5-3-|
-----4-4-2-|
-3-3-2-2-0-|
-3-3-2-2-0-|
-1-1-------| x 4

Chorus
-----------------------|
-2-2-2-2-2-5-5-5-------|
-2-2-2-2-2-7-7-7-0-0-0-|
-2-2-2-2-2-7-7-7-2-2-2-|
-0-0-0-0-0-5-5-5-2-2-2-|
-----------------0-0-0-| x 2

----------------------------------|
----------------------------------|
-5-5-5-5-5-5-5-5--7-7-7-7-7-7-7-7-|
-5-5-5-5-5-5-5-5--7-7-7-7-7-7-7-7-|
-3-3-3-3-3-3-3-3--5-5-5-5-5-5-5-5-|
----------------------------------|

2nd chorus play first part x 4

Solo
--------------------------------------------------|
-10v---10-8---------------------------------------|
-----------10-7--7-10--10--10h12-9----------------|
---------------10-----------------10-9--10--------|
--------------------------------------12--12-10-9-|
--------------------------------------------------|

------------10--10-8-8---------------------------------|
-10-13p10h13-----------12-10-8-10-8------(8h10p8)loads-|
-----------------------------------9-10----------------|
-------------------------------------------------------|
-------------------------------------------------------|
-------------------------------------------------------|

-15b17-15b17-13-|
----------------|
----------------|
----------------|
----------------|
----------------|

Then mid verse x 4
Chorus part 1 x 6
then chorus part 2 for outro
Добавлено: 16.06.2013
Другие материалы по этой песне:
  • Аккорды и текст

Страница создана 16.06.2013
http://primanota.ru/default/break-doors-down-chords.htm
Привет, Гость.
Предлагаем пройти революционный курс по гитаре.
Подарок от PrimaNota.Ru, забирай!