PrimaNota.ru - самый крупный в мире бесплатный архив песенных текстов, аккордов, табулатур и нот


Default - Beautiful Flower - текст песни, таба, видео

Регистрация Запомнить меня
Войти через:  Facebook Google Twitter Vk Yandex Mail.ru

Default - Beautiful Flower - текст песни, таба, видео

Печатать
Просмотров: 125
Beautiful Flower
Default
One Thing Remains (2005)

Beautiful Flower: written by Dallas Smith, Jeremy Hora, Dave Benedict, 
Danny Craig, Martin Frederiksen

NOTE:  I could not figure out the clean backing in the chorus.  I also 
could not figure out the wah noises in the bridge and outro, so I said 
it was feedback.

UPDATE:  I changed the symbols after the fbk signs.

GTR I - Drop C Tuning (d,A,F,C,G,C)
GTR II - Drop C Tuning (d,A,F,C,G,C)

Intro
  GTR I (Distortion)                           
d|-------|
A|-------|
F|-------|
C|-0-0-3-|
G|-0-0-3-|
C|-0-0-3-|
 |
 |GTR II (Dist. with Wah)
d|-------|
A|-------|
F|-------|
C|-------|
G|-------|
C|-------|

  GTR I (Distortion)
d|-------------------------------------------------|
A|-------------------------------------------------|
F|-----12/14-11----------------12/14-11------------|
C|-0-0--x--x--x-9/10\9-7-8-0-0--x--x--x-9/10\9-7-8-|
G|-0-0-10/12--9-x--x-x-x-x-0-0-10/12--9-x--x-x-x-x-|
C|-0-0----------9/10\9-7-8-0-0----------9/10\9-7-8-|
 |
 |GTR II (Dist. with Wah)
d|-------------------------------------------------|
A|-------------------------------------------------|
F|-------------------------------------------------|
C|-------------------------------------------------|
G|-------------------------------------------------|
C|-------------------------------------------------|

  GTR I (Distortion)              
d|-------------------------------------------------|
A|-------------------------------------------------|
F|-----12/14-11----------------12/14-11------------|
C|-0-0--x--x--x-9/10\9-7-8-0-0--x--x--x-9/10\9-7-8-|
G|-0-0-10/12--9-x--x-x-x-x-0-0-10/12--9-x--x-x-x-x-|
C|-0-0----------9/10\9-7-8-0-0----------9/10\9-7-8-|
 |
 |GTR II (Dist. with Wah)
d|-------------------------------------------------|
A|-------------------------------------------------|
F|-11b(12)r--11b(12)r--11b(12)r~~~-----------------|
C|---------------------------------------------12~-|
G|-------------------------------------------------|
C|-------------------------------------------------|

Verse
  GTR I (Distortion)           4x                
d|------------------------------|
A|------------------------------|
F|-------12/14---11-------------|
C|-0-0-0--x--x-0--x-0-0-0-0-7/8-|
G|-0-0-0-10/12-0--9-0-0-0-0-x-x-|
C|-0-0-0-------0----0-0-0-0-7/8-|
 |   . .       .    . . . .
 |GTR II (Distortion)
d|------------------------------|
A|------------------------------|
F|-------12/14---11-------------|
C|-0-0-0--x--x-0--x-0-0-0-0-7/8-|
G|-0-0-0-10/12-0--9-0-0-0-0-x-x-|
C|-0-0-0-------0----0-0-0-0-7/8-|
     . .       .    . . . .

  GTR I (Distortion)                              2x
d|-------------------------------------------------|
A|-------------------------------------------------|
F|-----12/14-11----------------12/14-11------------|
C|-0-0--x--x--x-9/10\9-7-8-0-0--x--x--x-9/10\9-7-8-|
G|-0-0-10/12--9-x--x-x-x-x-0-0-10/12--9-x--x-x-x-x-|
C|-0-0----------9/10\9-7-8-0-0----------9/10\9-7-8-|
 |
 |GTR II (Distortion)
d|-------------------------------------------------|
A|-------------------------------------------------|
F|-----12/14-11----------------12/14-11------------|
C|-0-0--x--x--x-9/10\9-7-8-0-0--x--x--x-9/10\9-7-8-|
G|-0-0-10/12--9-x--x-x-x-x-0-0-10/12--9-x--x-x-x-x-|
C|-0-0----------9/10\9-7-8-0-0----------9/10\9-7-8-|

Pre Chorus
  GTR I (Distortion)
d|--------------------------------|
A|--------------------------------|
F|-5-5-5-5-5-5-5-5----------------|
C|-5-5-5-5-5-5-5-5-5-5-5-3--------|
G|-3-3-3-3-3-3-3-3-5-5-5-3--------|
C|-----------------5-5-5-3--------|
 |
 |GTR II (Distortion)
d|--------------------------------|
A|--------------------------------|
F|-5-5-5-5-5-5-5-5----------------|
C|-5-5-5-5-5-5-5-5-5-5-5-3--------|
G|-3-3-3-3-3-3-3-3-5-5-5-3--------|
C|-----------------5-5-5-3--------|

Chorus
  GTR I (Distortion)                                              
d|-----------------------------------------------------------------|
A|-3-3-3-3-3-3-3-3-------------------------------------------------|
F|-2-2-2-2-2-2-2-2-5-5-5-5-5-5-5-5---------------------------------|
C|-0-0-0-0-0-0-0-0-5-5-5-5-5-5-5-5-5-5-5-5-5-5-5-5-3-3-3-3-5-5-5-5-|
G|-0-0-0-0-0-0-0-0-3-3-3-3-3-3-3-3-5-5-5-5-5-5-5-5-3-3-3-3-5-5-5-5-|
C|-0-0-0-0-0-0-0-0-----------------5-5-5-5-5-5-5-5-3-3-3-3-5-5-5-5-|
 |
 |GTR II (Clean)
d|-----------------------------------------------------------------|
A|-----------------------------------------------------------------|
F|-----------------------------------------------------------------|
C|-----------------------------------------------------------------|
G|-----------------------------------------------------------------|
C|-----------------------------------------------------------------|

  GTR I (Distortion)                                              
d|-----------------------------------------------------------------|
A|-3-3-3-3-3-3-3-3-------------------------------------------------|
F|-2-2-2-2-2-2-2-2-5-5-5-5-5-5-5-5---------------------------------|
C|-0-0-0-0-0-0-0-0-5-5-5-5-5-5-5-5-5-5-5-5-5-5-5-5-3-3-3-3-5-5-5-5-|
G|-0-0-0-0-0-0-0-0-3-3-3-3-3-3-3-3-5-5-5-5-5-5-5-5-3-3-3-3-5-5-5-5-|
C|-0-0-0-0-0-0-0-0-----------------5-5-5-5-5-5-5-5-3-3-3-3-5-5-5-5-|
 |
 |GTR II (Clean)
d|-----------------------------------------------------------------|
A|-----------------------------------------------------------------|
F|-----------------------------------------------------------------|
C|-----------------------------------------------------------------|
G|-----------------------------------------------------------------|
C|-----------------------------------------------------------------|

  GTR I (Distortion)
d|-------------------------------------------------|
A|-------------------------------------------------|
F|-----12/14-11----------------12/14-11------------|
C|-0-0--x--x--x-9/10\9-7-8-0-0--x--x--x-9/10\9-7-8-|
G|-0-0-10/12--9-x--x-x-x-x-0-0-10/12--9-x--x-x-x-x-|
C|-0-0----------9/10\9-7-8-0-0----------9/10\9-7-8-|
 |
 |GTR II (Dist. with Wah)
d|-------------------------------------------------|
A|-------------------------------------------------|
F|-------------------------------------------------|
C|-------------------------------------------------|
G|-------------------------------------------------|
C|-------------------------------------------------|

  GTR I (Distortion)              
d|-------------------------------------------------|
A|-------------------------------------------------|
F|-----12/14-11----------------12/14-11------------|
C|-0-0--x--x--x-9/10\9-7-8-0-0--x--x--x-9/10\9-7-8-|
G|-0-0-10/12--9-x--x-x-x-x-0-0-10/12--9-x--x-x-x-x-|
C|-0-0----------9/10\9-7-8-0-0----------9/10\9-7-8-|
 |
 |GTR II (Dist. with Wah)
d|-------------------------------------------------|
A|-------------------------------------------------|
F|-11b(12)r--11b(12)r--11b(12)r~~~-----------------|
C|---------------------------------------------12~-|
G|-------------------------------------------------|
C|-------------------------------------------------|

Verse
  GTR I (Distortion)           4x                
d|------------------------------|
A|------------------------------|
F|-------12/14---11-------------|
C|-0-0-0--x--x-0--x-0-0-0-0-7/8-|
G|-0-0-0-10/12-0--9-0-0-0-0-x-x-|
C|-0-0-0-------0----0-0-0-0-7/8-|
 |   . .       .    . . . .
 |GTR II (Distortion)
d|------------------------------|
A|------------------------------|
F|-------12/14---11-------------|
C|-0-0-0--x--x-0--x-0-0-0-0-7/8-|
G|-0-0-0-10/12-0--9-0-0-0-0-x-x-|
C|-0-0-0-------0----0-0-0-0-7/8-|
     . .       .    . . . .

  GTR I (Distortion)                              
d|-------------------------------------------------|
A|-------------------------------------------------|
F|-----12/14-11----------------12/14-11------------|
C|-0-0--x--x--x-9/10\9-7-8-0-0--x--x--x-9/10\9-7-8-|
G|-0-0-10/12--9-x--x-x-x-x-0-0-10/12--9-x--x-x-x-x-|
C|-0-0----------9/10\9-7-8-0-0----------9/10\9-7-8-|
 |
 |GTR II (Distortion)
d|-------------------------------------------------|
A|-------------------------------------------------|
F|-----12/14-11----------------12/14-11------------|
C|-0-0--x--x--x-9/10\9-7-8-0-0--x--x--x-9/10\9-7-8-|
G|-0-0-10/12--9-x--x-x-x-x-0-0-10/12--9-x--x-x-x-x-|
C|-0-0----------9/10\9-7-8-0-0----------9/10\9-7-8-|

Pre Chorus
  GTR I (Distortion)
d|--------------------------------|
A|--------------------------------|
F|-5-5-5-5-5-5-5-5----------------|
C|-5-5-5-5-5-5-5-5-5-5-5-3--------|
G|-3-3-3-3-3-3-3-3-5-5-5-3--------|
C|-----------------5-5-5-3--------|
 |
 |GTR II (Distortion)
d|--------------------------------|
A|--------------------------------|
F|-5-5-5-5-5-5-5-5----------------|
C|-5-5-5-5-5-5-5-5-5-5-5-3--------|
G|-3-3-3-3-3-3-3-3-5-5-5-3--------|
C|-----------------5-5-5-3--------|

Chorus
  GTR I (Distortion)
d|-----------------------------------------------------------------|
A|-3-3-3-3-3-3-3-3-------------------------------------------------|
F|-2-2-2-2-2-2-2-2-5-5-5-5-5-5-5-5---------------------------------|
C|-0-0-0-0-0-0-0-0-5-5-5-5-5-5-5-5-5-5-5-5-5-5-5-5-3-3-3-3-5-5-5-5-|
G|-0-0-0-0-0-0-0-0-3-3-3-3-3-3-3-3-5-5-5-5-5-5-5-5-3-3-3-3-5-5-5-5-|
C|-0-0-0-0-0-0-0-0-----------------5-5-5-5-5-5-5-5-3-3-3-3-5-5-5-5-|
 |
 |GTR II (Clean)
d|-----------------------------------------------------------------|
A|-----------------------------------------------------------------|
F|-----------------------------------------------------------------|
C|-----------------------------------------------------------------|
G|-----------------------------------------------------------------|
C|-----------------------------------------------------------------|

  GTR I (Distortion)                                              
d|-----------------------------------------------------------------|
A|-3-3-3-3-3-3-3-3-------------------------------------------------|
F|-2-2-2-2-2-2-2-2-5-5-5-5-5-5-5-5---------------------------------|
C|-0-0-0-0-0-0-0-0-5-5-5-5-5-5-5-5-5-5-5-5-5-5-5-5-3-3-3-3-5-5-5-5-|
G|-0-0-0-0-0-0-0-0-3-3-3-3-3-3-3-3-5-5-5-5-5-5-5-5-3-3-3-3-5-5-5-5-|
C|-0-0-0-0-0-0-0-0-----------------5-5-5-5-5-5-5-5-3-3-3-3-5-5-5-5-|
 |
 |GTR II (Clean)
d|-----------------------------------------------------------------|
A|-----------------------------------------------------------------|
F|-----------------------------------------------------------------|
C|-----------------------------------------------------------------|
G|-----------------------------------------------------------------|
C|-----------------------------------------------------------------|

Bridge
  GTR I (Distortion)
d|--------------|--------------|--------------|--------------|
A|-3------------|--------------|--------------|--------------|
F|-2------------|--------------|--------------|---------fbk--|
C|-0------------|--------------|--------------|--------------|
G|-0------------|--------------|--------------|--------------|
C|-0------------|--------------|--------------|--------------|
 |
 |GTR II (Dist. with Wah)
d|fbk-----------|--------------|--------------|--------------|
A|fbk-----------|--------------|--------------|--------------|
F|fbk-----------|--------------|--------------|--------------|
C|fbk-----------|--------------|--------------|--------------|
G|fbk-----------|--------------|--------------|--------------|
C|fbk-----------|--------------|--------------|--------------||

Pre Chorus
  GTR I (Distortion)
d|--------------------------------|
A|--------------------------------|
F|-5-5-5-5-5-5-5-5----------------|
C|-5-5-5-5-5-5-5-5-5-5-5-3--------|
G|-3-3-3-3-3-3-3-3-5-5-5-3--------|
C|-----------------5-5-5-3--------|
 |
 |GTR II (Distortion)
d|--------------------------------|
A|--------------------------------|
F|-5-5-5-5-5-5-5-5----------------|
C|-5-5-5-5-5-5-5-5-5-5-5-3--------|
G|-3-3-3-3-3-3-3-3-5-5-5-3--------|
C|-----------------5-5-5-3--------|

Chorus
  GTR I (Distortion)
d|-----------------------------------------------------------------|
A|-3-3-3-3-3-3-3-3-------------------------------------------------|
F|-2-2-2-2-2-2-2-2-5-5-5-5-5-5-5-5---------------------------------|
C|-0-0-0-0-0-0-0-0-5-5-5-5-5-5-5-5-5-5-5-5-5-5-5-5-3-3-3-3-5-5-5-5-|
G|-0-0-0-0-0-0-0-0-3-3-3-3-3-3-3-3-5-5-5-5-5-5-5-5-3-3-3-3-5-5-5-5-|
C|-0-0-0-0-0-0-0-0-----------------5-5-5-5-5-5-5-5-3-3-3-3-5-5-5-5-|
 |
 |GTR II (Clean)
d|-----------------------------------------------------------------|
A|-----------------------------------------------------------------|
F|-----------------------------------------------------------------|
C|-----------------------------------------------------------------|
G|-----------------------------------------------------------------|
C|-----------------------------------------------------------------|

  GTR I (Distortion)                                Entire Chorus 2x
d|-----------------------------------------------------------------|
A|-3-3-3-3-3-3-3-3-------------------------------------------------|
F|-2-2-2-2-2-2-2-2-5-5-5-5-5-5-5-5---------------------------------|
C|-0-0-0-0-0-0-0-0-5-5-5-5-5-5-5-5-5-5-5-5-5-5-5-5-3-3-3-3-5-5-5-5-|
G|-0-0-0-0-0-0-0-0-3-3-3-3-3-3-3-3-5-5-5-5-5-5-5-5-3-3-3-3-5-5-5-5-|
C|-0-0-0-0-0-0-0-0-----------------5-5-5-5-5-5-5-5-3-3-3-3-5-5-5-5-|
 |
 |GTR II (Clean)
d|-----------------------------------------------------------------|
A|-----------------------------------------------------------------|
F|-----------------------------------------------------------------|
C|-----------------------------------------------------------------|
G|-----------------------------------------------------------------|
C|-----------------------------------------------------------------|

Outro
  GTR I (Distortion)
d|-------------------------------------------------|
A|-------------------------------------------------|
F|-----12/14-11----------------12/14-11------------|
C|-0-0--x--x--x-9/10\9-7-8-0-0--x--x--x-9/10\9-7-8-|
G|-0-0-10/12--9-x--x-x-x-x-0-0-10/12--9-x--x-x-x-x-|
C|-0-0----------9/10\9-7-8-0-0----------9/10\9-7-8-|
 |
 |GTR II (Dist. with Wah)
d|fbk----------------------------------------------|
A|fbk----------------------------------------------|
F|fbk----------------------------------------------|
C|fbk----------------------------------------------|
G|fbk----------------------------------------------|
C|fbk----------------------------------------------|

  GTR I (Distortion)
d|-------------------------------------------------|
A|-------------------------------------------------|
F|-----12/14-11----------------12/14-11------------|
C|-0-0--x--x--x-9/10\9-7-8-0-0--x--x--x-9/10\9-7-8-|
G|-0-0-10/12--9-x--x-x-x-x-0-0-10/12--9-x--x-x-x-x-|
C|-0-0----------9/10\9-7-8-0-0----------9/10\9-7-8-|
 |
 |GTR II (Dist. with Wah)
d|fbk----------------------------------------------|
A|fbk----------------------------------------------|
F|fbk----------------------------------------------|
C|fbk----------------------------------------------|
G|fbk----------------------------------------------|
C|fbk----------------------------------------------|

|fbk feedback
| b  bend
| r  release bend
| /  slide up
| \  slide down
| h  hammer-on
| p  pull-off
| ~  vibrato
| +  harmonic
| x  Mute note
===============================================================================
Добавлено: 10.08.2013
Другие материалы по этой песне:
  • Аккорды и текст

Страница создана 06.05.2012
http://primanota.ru/default/beautiful-flower-chords.htm
Привет, Гость.
Предлагаем пройти революционный курс по гитаре.
Подарок от PrimaNota.Ru, забирай!