PrimaNota.ru - самый крупный в мире бесплатный архив песенных текстов, аккордов, табулатур и нот


Def Leppard - Wasted - аккорды и текст, таба, бас-таба, видео

Регистрация Запомнить меня
Войти через:  Facebook Google Twitter Vk Yandex Mail.ru

Def Leppard - Wasted - аккорды и текст, таба, бас-таба, видео

Печатать
Просмотров: 220
Авторы: Joe Elliott, Steve Clark

Wasted
Def Leppard
		   -##


Here's a little something I worked out the other day - it's the intro to
'Wasted' from Def Leppard's 'On Through the Night'.Actually what I'm really
after is 'I Wanna Be Your Hero' (solo or intro) from Retroactive.In exchange
I've got the music to all the songs off Adrenalize,I just feel a bit guilty
about ripping off such an excellent band so I won't post them unless I'm asked
(really nicely).Cheers!

                            Wasted by Def Leppard

PM    PM   PM    PM   PM
----------------------------------------------------------------------------
----------------------------------------------------------------------------
----9----7----12----9---7----5-5-5-5-/---7-7-7-4-4-4------------------------
----9----7----12----9---7----5-5-5-5-/---7-7-7-4-4-4------------------------
----7----5----10----7---5----3-3-3-3-/---5-5-5-2-2-2------------------------
-00---00---00----00---0-----------------------------------------------------
 vv v vv v vv v  vv v v v    v ^ v ^     v ^ v ^ v ^

Terry (tjr93ph@soton.ac.uk)


I saw the Wasted opening riff in the archive and couldn't resist adding
the rest of the song, as I play it.  I don't know how to play the solo,
so if someone else can add it, great.  The lyrics are also printed here
with notations on which riff is played to which line(s).  Some of the
lines overlap riffs, but that's hard to notate.  Any
additions/corrections would be welcome.


                     "WASTED" - DEF LEPPARD
              From the album "ON THROUGH THE NIGHT"
    Words and music by Elliot, Clarke, Willis, Savage, Allen

V = Palm mute
/ = Slide up
\ = Slide down
/B\ = Bend
~ = Vibrato
^ = Hammer on/off


       E5              E
6 X---------X     0-----X-X-X
  | 1 | | | |     | | | | | |
  -----------     -----------
  | | | | | |     | 1 1 | | |
  -----------     -----------
  | | 3 3 3 |     | | | | | |
  -----------     -----------
  | | | | | |     | | | | | |

RIFF 'A'
(2nd guitar)
   E5              E E (second time in intro and after solo only)
   V V   V V   V V    V V   V V   V V V
E|-----------------------------------------------------------
B|-----------------------------------------------------------
G|--------------------------------------5----5-5/-5\--4------
D|--------------------------------------5----5-5/-5\--4------
A|-----7-----5-----10-----7-----5-------3----3-3/-7\--2------
E|-0-0---0-0---0-0----0-0---0-0---0-0-0----------------------


RIFF 'B'

E|---------------------------------------------------------------
B|---------------------------------------------------------------
G|-------7------5------------------------7------5----------------
D|-------7---7--5------------------------7---7--5----------------
A|-------5---7--3-------2--0-------------5---7--3-----2--0-------
E|-0---------5-------3--------3--2--0--------5------3-------3--2-


RIFF 'C'

E|-------------------------------------------------------------
B|-----0---5--4/--7/--9-------9\---7\---5------5/---7/---9-----
G|-----0---5--4/--7/--9-------9\---7\---5------5/---7/---9-----
D|-2---0---5--4/--7/--9-------9\---7\---5------5/---7/---9-----
A|-2-------3--2/--5/--7-------7\---5\---3------3/---5/---7-----
E|-0---3-------------------------------------------------------

   /B\      /B\      /B\
E|----------------------------------------
B|-8----7---8----9---8----7---------5--4--
G|-7----7---7----9---7----7---------5--4--
D|------7--------9--------7--6---5-----4--
A|------5--------7--------5--4---3-----2--
E|----------------------------------------


RIFF 'D'
E|-------------------------------------
B|----------------------------------5--
G|-------7------5-------------------4--
D|-------7---7--5-------------------2--
A|-------5---7--3-------2--0--------2--
E|-0---------5-------3--------3--2--0--

(Riff 'A' 4 times)
(Riff 'A')
Well I've been lying awake all night just thinking of you
(Riff 'A')
But a bottle of whiskey lies heavy obstructing my view
(Riff 'A')
I've got a bottle of pills to give my my thrills
(Riff 'A')
And I know I'm leading a life that kills

          (Riff 'B')
CHORUS:   "Wasted" - I've wasted my time
          (Riff 'B')
          "Wasted" - I'm shooting a line
          (Riff 'B')
          "Wasted" - I'm stuck in a hole
          (Riff 'B')
          "Wasted" - I'm losing control

(Riff 'A' 2 times)
(Riff 'A')
I've been meaning to call, I've been wanting to phone
(Riff 'A')
I don't like the thought of leaving you here alone
(Riff 'A')
I've seen things down here that are fit for a queen
(Riff 'A')
I"ve seen things down here that should never be seen

          (Riff 'B')
CHORUS:   "Wasted" - I've wasted my money
          (Riff 'B')
          "Wasted" - I've wasted you honey
          (Riff 'B')
          "Wasted" - I'm out of my brain
          (Riff 'B')
          "Wasted" - I'm going insane

(Riff 'C')
I'm runing in thin air
There's nothingness everywhere
I've gotta get out (won't you help me)
I've gotta get out (won't you help me)
I've gotta get out won't you help me get out

SOLO over Riff 'A' 4 times
          Riff 'B' 4 times

(Riff 'A' 2 times)
(Riff 'A')
I thought I saw you just the other day
(Riff 'A')
But it couldn't be you cause you had nothing to say
(Riff 'A')
"He's going away," they told all my friends
(Riff 'A')
Now I'm stuck in here 'till the misery ends


          (Riff 'B')
CHORUS:   "Wasted" - I've wasted my time
          (Riff 'B')
          "Wasted" - I'm shooting a line
          (Riff 'B')
          "Wasted" - I'm out of my head
          (Riff 'D')
          "Wasted" - I wish I was dead     
Добавлено: 19.07.2013
Другие материалы по этой песне:

Страница создана 25.02.2012
http://primanota.ru/def-leppard/wasted-chords.htm
Привет, Гость.
Предлагаем пройти революционный курс по гитаре.
Подарок от PrimaNota.Ru, забирай!